Rammstein - Sonne Chords & Tabs

 

Sonne Chords & Tabs

Rammstein Chords & Tabs

Version: 4 Type: Tab 0 ratings
1 star 2 stars 3 stars 4 stars 5 stars
comments

Sonne Tab

   
Rammsteim, Sonne
Tune to Drop D
Heavy distortion with distortion set to 100% bass and 50% treble
This tab is 100% correct

Intro:
E  ---------------------------------------------------------
B  ---------------------------------------------------------
G  ---------------------------------------------------------
D  -0-006060-0060650-006065550060650-006060-0060650-00606555
A  -0-006060-0060650-006065550060650-006060-0060650-00606555
E  -0-006060-0060650-006065550060650-006060-0060650-00606555


4X
E  ---------------
B  ---------------
F  ---------------
D  -0060650-006060
A  -0060650-006060
E  -0060650-006060
[ Tab from: http://www.guitartabs.cc/tabs/r/rammstein/sonne_tab_ver_4.html ]
Chorous:1X
E  ------------------------------------------------
B  ------------------------------------------------
F  4--4--2--5--4--4--2--5-----4-----------4--------
D  4--2--0--5--4--2--0--5--2--4--5--4--2--4--5--4--
A  2--2--0--3--2--2--0--3--2--2--5--4--2--2--5--4--
E  ---2--0--------2--0-----2-----5--4--2-----5--4--

E  -------------------------------
B  -------------------------------
F  -------------------------------
D  -0060650-006060-0060650-00606555
A  -0060650-006060-0060650-00606555
E  -0060650-006060-0060650-00606555


E  ---------------
B  ---------------
F  ---------------
D  -0060650-006060
A  -0060650-006060
E  -0060650-006060


E  ---------------
B  ---------------
F  ---------------
D  -0060650-006060
A  -0060650-006060
E  -0060650-006060

Chorous 2X (second time woman's voice comes in)

Woman's voice, drums, and bass

Chorous 2X

~my name is josh.  i live in ky and ive been playing for about two years and
i am positive that his is how it's done
e mail me Meegs0@aol.com
Comments