Rammstein - Sonne Chords & Tabs

 

Sonne Chords & Tabs

Rammstein Chords & Tabs

Version: 2 Type: Tab 1 rating
1 star 2 stars 3 stars 4 stars 5 stars
comments

Sonne Tab

Song: Sonne
Artist: Rammstein
Album: Mutter
Tabbed By: David Russell 

This sounds ok, Dunno if it is 100% correct.

tuning: Drop D 
[ Tab from: http://www.guitartabs.cc/tabs/r/rammstein/sonne_tab_ver_2.html ]
intro/verse: 
-------------------------------------------------------------------- 
-------------------------------------------------------------------- 
--------------------------------------------------------------------
-0-6p0-6p5-0--0-6p0-6p5--------------------------------------------- 
-0-6p0-6p5-0--0-6p0-6p5---------------------------------------------
-0-6p0-6p5-0--0-6p0-6p5--------------------------------------------- 
                                                                               
chorus: 
-------------------------------------------------------------------- 
-------------------------------------------------------------------- 
-4---4---2---5---4---4---2---5-------4---------------4-------------- 
-4---2---0---5---4---2---0---3---2---4---5---4---2---4---5---4------ 
-2---2---0---3---2---2---0---3---2---2---5---4---2---2---5---4------
-----2---0-----------2---0-------2-------5---4---2-------5---4------ 
                                                                        
The structure and rythm is easy enough for you to figure out.


Please mail any Corrections etc, to Looks_like_I_have_died@hotmail.com


"You may stop this individual, but you can't stop us all....after all, we're all alike."
   			 +++The Mentor+++
Comments