Rammstein - Sehnsucht Chords & Tabs

 

Sehnsucht Chords & Tabs

Rammstein Chords & Tabs

Version: 2 Type: Bass Tab

Sehnsucht Bass Tab

Main Riff/Main Chorus  
G|-------------------------------------|  
D|-------------------------------------|  
A|-------7-6---8-7---10-----8---7-5----|  
E|-0-0-0-----0-----0----0-0---0--------|  
   
Break  
G|------------|  
D|------------|  
A|-3---0------|  
E|---3---0----|  
   
Interlude  
G|-----------------------------------|  
D|-----------------------------------|  
A|-----------------------------------|  
E|-0-0-0--0--0-0-0--0-0-0--0--0-0----|  
   
Alternate Chorus  
G|-------------------------------------------------|  
D|-------------------------------------------------|  
A|--------------------------3---3-2-0--------------|  
E|-0---3-3-2-2-0----3-3-2-2-------------3-3-2-2----|  

[ Tab from: http://www.guitartabs.cc/tabs/r/rammstein/sehnsucht_btab_ver_2.html ]