Rammstein - Sehnsucht Chords & Tabs

 

Sehnsucht Chords & Tabs

Rammstein Chords & Tabs

Version: 1 Type: Bass Tab 0 ratings
1 star 2 stars 3 stars 4 stars 5 stars
comments

Sehnsucht Bass Tab

Sehnsucht - Rammstein
Jon Craven (i_apathy@hotmail.com; www.homestead.com/larsramirez)
(enters @ 0:15)
(note: I wrote part of the song for a 5-string instead of tunning to dropped D; 
       just play it an octave higher)

Riff 1: (x6)
G:---------------------|---------------------|
D:---------------------|---------------------|
A:---------------------|---------------------|
E:-0-0-0-12-11-0-13-12-|-0-15-0-0-13-0-13-10-|

Fill:
G:------------|------------------|
D:------------|------------------|
A:------------|------------------|
E:-R--R--R--R-|-R--R--R-15-14-13-|

Riff 1 (x7)
Pause for 2 measures
Riff 1 (x11)
Pause for 2 measures
Riff 1 (x7)

Fill 2:
G:-----------------|-----------------|
D:-7-7-7-7-7-7-7-7-|-7-7-7-7-7-7-7-7-|
A:-----------------|-----------------|
E:-----------------|-----------------|

Riff 1 (x4)

Fill 3:
G:-------------|----------|
D:-------------|----------|
A:-3-----------|----------|
E:----3--5--0*-|-********-|

Riff 1 (x2)
Fill 3
Pause for 8 measures
[ Tab from: http://www.guitartabs.cc/tabs/r/rammstein/sehnsucht_btab.html ]
Riff 2: (x3)
G:----------------|---------------|
D:----------------|---------------|
A:----------------|---------------|
E:----------------|---------------|
B:-5-5-5-5--5-5-3-|-5-5-5--5--5-3-|

Riff 3:
G:----------------|-------------|
D:----------------|-------------|
A:----------------|-------------|
E:----------------|-------------|
B:-5-5-5-5--5-5-3-|-5-5-5--5--5-|

Riff 4: (x2)
G:----------------|----------------|----------------|----------------|----------------|-------------|
D:----------------|----------------|----------------|----------------|----------------|-------------|
A:----------------|----------------|----------------|----------------|-3-3-3-3--3-3-3-|-3-3-3--2--1-|
E:----------------|----------------|----------------|----------------|----------------|-------------|
B:-5-5-5-5--5-5-3-|-5-5-5--6-5-4-3-|-5-5-5-5--5-5-3-|-5-5-5--6-5-4-3-|----------------|-------------|

G:----------------|----------------|
D:----------------|----------------|
A:-0-0-0-0--0-0-0-|-0-0-0----------|
E:----------------|----------------|
B:----------------|--------6-5-4-3-|

Riff 1 (x6)

End:
G:---------------------|----------------|
D:---------------------|----------------|
A:---------------------|----------------|
E:-0-0-0-12-11-0-13-12-|-0-15-0-0-13--R-|

Break till end
Comments