Rammstein - Seemann Chords & Tabs

 

Seemann Chords & Tabs

Rammstein Chords & Tabs

Version: 5 Type: Tab 0 ratings
1 star 2 stars 3 stars 4 stars 5 stars
comments

Seemann Tab

   
Author/Artist: Rammstein
Title: Seemann
Album: Herzeleid
Transcribed by: Israel Ramírez
Email: rhcp_k@hotmail.com

Mas vale tarde que nunca
pongo el bajo transportado a la guitarra
y logicamente tambien la guitarra la afinacion es la normal

E-A-D-G-B-E

-|----------------------------------------------------------------------------|
-|----2-------0---------------------------------------------------------------|
-|--------------------2-------1-----------------------------------------------|
-|--2---2---2---2---2---2---2---2-----4-------4-------------------------------|
-|0-------0-------0-------0---------2---2---2---2-----------------------------|
-|--------------------------------4-------4-----------------------------------|


-|----------------------------------------------------------------------------|
-|----------------------------------------------------------------------------|
-|--------------------2-------------------------------------------------------|
-|----6-------6---------------6-------4-------2-------------------------------|
-|--2---2---2---2---4---4---4---4---4---4---4---4-----------------------------|
-|4-------4-------2-------2-------2-------2-----------------------------------|

[ Tab from: http://www.guitartabs.cc/tabs/r/rammstein/seemann_tab_ver_5.html ]
-|----------------------------------------------------------------------------|
-|----------------------------------------------------------------------------|
-|----6-------5-------6-------6-----------------------------------------------|
-|--6---6---6---6---6---6---6---6---------------------------------------------|
-|4-------4-------4-------4---------------------------------------------------|
-|----------------------------------------------------------------------------|


-|----------------------------------------------------------------------------|
-|----------------------------------------------------------------------------|
-|----------------------------------------------------------------------------|
-|111111111--999999999--7777-6666---------------------------------------------|
-|111111111--999999999--7777-6666---------------------------------------------|
-|999999999--777777777--5555-4444---------------------------------------------|
 esos son los acordes los rasgeos pues la verdad no se bien cuantas veces....

-|----------------------------------------------------------------------------|
-|----------------------------------------------------------------------------|
-|----------------------------------------------------------------------------|
-|2-x-x-2---------------------------------------------------------------------|
-|2-x-x-2---------------------------------------------------------------------|
-|0-x-x-0---------------------------------------------------------------------|


-|----------------------------------------------------------------------------|
-|----------------------------------------------------------------------------|
-|----2--------------------------------6------5-----6-------------------------|
-|------------6-------4-------2h4p2--6--6---6---6---6-------------------------|
-|--4---4---4---4---4---4---4------4------4---------4-------------------------|
-|2-------2-------2-------2---------------------------------------------------|
 y asi termina hacen todo lo de el intro solo le cambian esto..............
Comments