Rammstein - Seemann Chords & Tabs

 

Seemann Chords & Tabs

Rammstein Chords & Tabs

Version: 3 Type: Tab 0 ratings
1 star 2 stars 3 stars 4 stars 5 stars
comments

Seemann Tab

   
Seeman

Drop D tuning
|-e-|
|-B-|
|-G-|
|-D-|
|-A-|
|-D-|

Acoustic Part
|----------------------------------|---------------------------------|
|----------------------------------|---------------------------------|
|----------------------------------|---------------------------------|
|-----11-------9-------7-------6---|-----2-------2-------4-------4---|
|---0----0---0---0---0---0---0---0-|---2---2---2---2---2---2---2---2-|
|-0--------0-------0-------0-------|-2-------2-------2-------2-------|
[ Tab from: http://www.guitartabs.cc/tabs/r/rammstein/seemann_tab_ver_3.html ]
|---------------------------------|---------------------------------|
|---------------------------------|---------------------------------|
|---------------------------------|---------------------------------|
|-----7-------6-------4-------2---|-----0-------0-------2-------4---|
|---7---7---7---7---7---7---5---5-|---2---2---2---2---2---2---2---2-|
|-7-------7-------7-------7-------|-2-------2-------2-------2-------|

Heavy Part
|--------------------------------------------------------|
|--------------------------------------------------------|
|--------------------------------------------------------|
|-2//////////--------------------------------------------|
|-0//////////-2////////////-0///////////-2//////////////-|
|-------------2////////////-0///////////-2//////////////-|

tabbed by Rebel X
Ramms+ein tabs: http://www.geocities.com/SunsetStrip/Pit/2594/index.html
Comments