Rammstein - Seemann Chords & Tabs

 

Seemann Chords & Tabs

Rammstein Chords & Tabs

Version: 1 Type: Bass Tab 0 ratings
1 star 2 stars 3 stars 4 stars 5 stars
comments

Seemann Bass Tab

Seemann - Rammstein

By: Jon Craven (i_apathy@hotmail.com)
For questions, comments, feedback, an outline of the timing, write the above
address.

Notes:
  -Oliver uses a banjo style finger picking for the verse and chorus.
  -The tempo seems between 70 and 71 bpm; using a metrinome, you'll notice it
seems off.

(4/4)(70 bpm)
Standard tuning

* - note held for an eighth beat
h - hammer-on
p - pull-off

Verse (chorus): (x4)(0:07)
|---18-----16-----14-----13--|---11----11----13----13-|
|-14--14-14--14-14--14-14--14|--9--9--9--9--9--9--9--9|
|0------0------0------0------|11----11----11----11----|
|----------------------------|------------------------|
[ Tab from: http://www.guitartabs.cc/tabs/r/rammstein/seemann_btab.html ]
|---14-----13-----11-----9--|----------------------------|
|-11--11-11--11-11--11-11-11|---11-----10-----11-----11--|
|9------9------9------9-----|-11--11-11--11-11--11-11--11|
|---------------------------|9------9------9------9------|

Chorus
Verse (x2)
Chorus (x5)

Fill: (2:51)
|----------------|----------------|
|----------------|----------------|
|----------------|----------------|
|0-*-*-*-*-*-*-*-|000-*-*-*-*-*-*-|

Verse (x2)
Chorus (x4)
Fill

Outro: (4:27)
|---18-----16-----14-----13--|---11----11----13----13-|
|-14--14-14--14-14--14-14--14|--9--9--9--9--9--9--9--9|
|0------0------0------0------|11----11----11----11----|
|----------------------------|------------------------|
                                                   (hold till end)
|---14-----13-----11-----9--|----------------------|----------------|
|-11--11-11--11-11--11-11-11|-----11---------10----|----------------|
|9------9------9------9-----|--11----11---11----11-|----------------|
|---------------------------|9----------9----------|9-*-*-*-*-*-*-*-|
Comments