Rammstein - Seeman Chords & Tabs

 

Seeman Chords & Tabs

Rammstein Chords & Tabs

Version: 1 Type: Bass Tab 0 ratings
1 star 2 stars 3 stars 4 stars 5 stars
comments

Seeman Bass Tab

G------18------16------14------13-
D---14------14------14------14----
A-0-------0-------0-------0-------
E---------------------------------

G------11------11------13------13-
D----9-------9-------9-------9----
A-11------11------11------11------
E---------------------------------
[ Tab from: http://www.guitartabs.cc/tabs/r/rammstein/seeman_btab.html ]
G------14------13------11------9--
D---11------11------11------11----
A-9-------9-------9-------9-------
E---------------------------------

G---------------------------------
D-----11----10------11------11----
A--11----11------11------11-------
E-9----9-------9-------9----------




Flamenco picking style is used, but you should do whatever is 
easiest.

kriket1134@msn.com
Comments