Rammstein - Rosenrot Chords & Tabs

 

Rosenrot Chords & Tabs

Rammstein Chords & Tabs

Version: 4 Type: Bass Tab

Rosenrot Bass Tab

   
Band: Rammstein
Song: Rosenrot
Album: Rosenrot

g|-----------------------------------------------------------------|
d|-----------------------------------------------------------------|
a|-3-3-3-3-3-3-3-3-----------------3-3-3-3-3-3-3-3-----------6-6-6-| X15
e|-----------------4-4-4-4-4-4-4-4-----------------4-4-4-4-4-------|

g|---------------------------------------------------------|
d|---------------------------------------------------------|
a|-3-00-3-00-3-0-4-00-4-00-4-0-3-00-3-00-3-0-1-00-1-00-1-0-| X2
e|---------------------------------------------------------|
[ Tab from: http://www.guitartabs.cc/tabs/r/rammstein/rosenrot_btab_ver_4.html ]
g|-----------------------------------------------------------------|
d|-----------------------------------------------------------------|
a|-3-3-3-3-3-3-3-3-----------------3-3-3-3-3-3-3-3-----------6-6-6-| X8
e|-----------------4-4-4-4-4-4-4-4-----------------4-4-4-4-4-------|

g|---------------------------------------------------------|
d|---------------------------------------------------------|
a|-3-00-3-00-3-0-4-00-4-00-4-0-3-00-3-00-3-0-1-00-1-00-1-0-| X2
e|---------------------------------------------------------|

End with:
g|---|
d|---|
a|-3-|
e|---|

Feel free to correct me and please rate!

plays diffrently in tuning: c,g,c,f but this is also right!

/HydroxidusSs!!!!!