Rammstein - Rosenrot Chords & Tabs

 

Rosenrot Chords & Tabs

Rammstein Chords & Tabs

Version: 2 Type: Bass Tab

Rosenrot Bass Tab

Band: Rammstein
Song: Rosenrot
Album: Rosenrot
Tabber: Kinky Craig (laura_lover)

Standard tuning.



I've tabbed this song because other tabs I've seen and tried just seem, well, wrong.
I'm pretty sure this is about right, perhaps not 100% but still better than any other
I've seen so far. 

Rate it please.



(#1) Intro and Verses

G|-----------------|-----------------|
D|-----------------|-----------------|
A|-3-3-3-3-3-3-3-3-|-----------------|
E|-----------------|-4-4-4-4-4-4-4-4-|

G|-----------------|-----------------|
D|-----------------|-----------------|
A|-3-3-3-3-3-3-3-3-|-----------6-6-6-|
E|-----------------|-4-4-4-4-4-------| (UPDATED)

Repeat through song.



(#2) Chorus.
[ Tab from: http://www.guitartabs.cc/tabs/r/rammstein/rosenrot_btab_ver_2.html ]
G|-----------------|-----------------|
D|-----------------|-----------------|
A|-3-3-3-3-3-3-3-3-|-5-5-5-5-5-5-5-5-|
E|-----------------|-----------------|

G|-----------------|-----------------|
D|-----------------|-----------------|
A|-3-3-3-3-3-3-3-3-|-5-5-5-5-5-4-4-4-|
E|-----------------|-----------------|




The bass in the heavier bit of the song (aka the chorus (#2)) is harder to hear than
the rest of the bass but I'm pretty sure it's about right. At the start of the chorus,
the verse carries on twice through I think, and then the actualy chorus bit starts. But
try and figure out orders yourself, then if I've done something wrong you can try and
correct it.


Please post any corrections as comments please.