Rammstein - Reise Reise Chords & Tabs

 

Reise Reise Chords & Tabs

Rammstein Chords & Tabs

Version: 3 Type: Tab 0 ratings
1 star 2 stars 3 stars 4 stars 5 stars
comments

Reise Reise Tab

   
Author/Artist: Rammstein
Title: Reise Reise
Album: Reise Reise
Transcribed by: Israel Ramirez
Email: rhcp_k@hotmail.com

Que pedo pues esta bien facil y chingona aprendencela no mamen
afinen en DO si no quiren que no suene nada parecido.

C-G-C-F-A-D

-|----------------------------------------------------------------------------|
-|----------------------------------------------------------------------------|
-|----------------------------------------------------------------------------|
-|----------------------------------------------------------------------------|
-|----------------------------------------------------------------------------|
-|-1-4-8-6----1-1-11-11-------------------------------------------------------|

[ Tab from: http://www.guitartabs.cc/tabs/r/rammstein/reise_reise_tab_ver_3.html ]
-|-----------------------------------------------------------------------------|
-|-----------------------------------------------------------------------------|
-|-----------------------------------------------------------------------------|
-|-1-4-8-6---------------------------------------------------------------------|
-|-1-4-8-6---------------------------------------------------------------------|
-|-1-4-8-6---------------------------------------------------------------------|


-|----------------------------------------------------------------------------|
-|----------------------------------------------------------------------------|
-|----------------------------------------------------------------------------|
-|-1-1-1-1-11-11-11-11--------------------------------------------------------|
-|-1-1-1-1-11-11-11-11--------------------------------------------------------|
-|-1-1-1-1-11-11-11-11--------------------------------------------------------|


-|-----------------------------------------------------------------------------|
-|-----------------------------------------------------------------------------|
-|-----------------------------------------------------------------------------|
-|-1-0-1--1-1-0-1-2-1--1/2-0---------------------------------------------------|
-|-1-0-1--1-1-0-1-2-1--1/2-0---------------------------------------------------|
-|-1-0-1--1-1-0-1-2-1--1/2-0---------------------------------------------------|

ich komm wieder in zehn tagen als dein schatten und werd dich jagen
Comments