Rammstein - Reise Reise Chords & Tabs

 

Reise Reise Chords & Tabs

Rammstein Chords & Tabs

Version: 1 Type: Tab 0 ratings
1 star 2 stars 3 stars 4 stars 5 stars
comments

Reise Reise Tab

Rammstein-Reise Reise Tabbed by Soldado del fuego
The easiet song I know how to play recomend for beginers.
Tuning: Drop D


Intro/Chorus:
|-------------------------------|
|-------------------------------|
|-------------------------------|
|-1-4-8-6-1-1-0-0---------------|
|-1-4-8-6-1-1-0-0---------------|
|-1-4-8-6-1-1-0-0---------------|

[ Tab from: http://www.guitartabs.cc/tabs/r/rammstein/reise_reise_tab.html ]
|-------------------------------|
|-------------------------------|
|-------------------------------|
|-1-0-1---1-0-1-1-0-1--0-1-0----|
|-1-0-1---1-0-1-1-0-1--0-1-0----|
|-1-0-1---1-0-1-1-0-1--0-1-0----|X4

The first chorus is the only part that uses that one riff above.
Basically you keep repeating the first riff through out the song.
¡Viva Argentina!
Comments