Rammstein - Rammstein Chords & Tabs

 

Rammstein Chords & Tabs

Rammstein Chords & Tabs

Version: 5 Type: Bass Tab

Rammstein Bass Tab

Band: Rammstein
Album: Herzeleid
Song: Rammstein

normal tuning

[Note: R = rest
 
                      3 times   then...
G|----------------------------||---------------------------|
D|---------------------------.||---------------------------|
A|-----78----78----78----87--.||-----78----78----78----RR--|  X3
E|--00----00----00------------||--00----00----00-----------|


G|---------------------------|
D|---------------------------|
A|---------------------------| X4
E|--3-000-1-000-1-000-1-000--|


G|---------------------------|  |---------------------------|
D|---------------------------|  |---------------------------|
A|-----78----78----78----87--|x3|-----78----78----78----RR--| X3
E|--00----00----00-----------|  |--00----00----00-----------|

[ Tab from: http://www.guitartabs.cc/tabs/r/rammstein/rammstein_btab_ver_5.html ]
G|---------------------------|
D|---------------------------|
A|--------- REST ------------|x2
E|---------------------------|

                      3 times   then...
G|----------------------------||---------------------------|
D|---------------------------.||---------------------------|
A|-----78----78----78----87--.||-----78----78----78----RR--| X2
E|--00----00----00------------||--00----00----00-----------|


G|-------------------------------|
D|-------------------------------|
A|-------------------------------| X1
E|--3-000-1-000-1-000-1-000-3-0--|


G|---------------------------|
D|---------------------------|
A|--------- REST ------------|
E|---------------------------|


G|---------------------------|
D|---------------------------|
A|-----78----78----78----87--| X14
E|--00----00----00-----------|  


G|---------------------------|
D|---------------------------|
A|-----78----78----7---------|
E|--00----00----00-----------|


Sounds very right to me!!

/HydroxidusSs