Rammstein - Rammstein Chords & Tabs

 

Rammstein Chords & Tabs

Rammstein Chords & Tabs

Version: 3 Type: Bass Tab 0 ratings
1 star 2 stars 3 stars 4 stars 5 stars
comments

Rammstein Bass Tab

Artist:Rammstein
Album:Herzeleid
Song:Rammstein

standart tuning


intro (x8)
------------------------------|
------------------------------|
-7-----8-7------8-7------8----|
---0-0-----0-0------0-0-------|
[ Tab from: http://www.guitartabs.cc/tabs/r/rammstein/rammstein_btab_ver_3.html ]
play this all the time and playit when the solo starts
----------------------------|------------------------
----------------------------|------------------------
----78---78---78---78-------|----78---78---78---78---
-00---00---00---00----------|-00---00---00---00------


(x17) 
------------------------------|
------------------------------|
------------------------------|
-1-000-1-000-1-000-1-000-1-000|
Comments