Rammstein - Other World Chords & Tabs

 

Other World Chords & Tabs

Rammstein Chords & Tabs

Version: 1 Type: Bass Tab 0 ratings
1 star 2 stars 3 stars 4 stars 5 stars
comments

Other World Bass Tab

Otherworld From Final fantasy 10 (Performed by Rammstein) (Written by Nobou Uemastu)
Tuning DADG
~ - Hold
 / - Slide

Beginning Riff x2
G|-----------------------------------------------------------||
D|-------5-------3-------5-----------------------------------||
A|-----------------------------------------------------------||
D|---00------00-------00--6-5-6-5-6-5-6-5--------------------||
[ Tab from: http://www.guitartabs.cc/tabs/r/rammstein/other_world_btab.html ]
Intro 2 x2
G|-----------------------------------||-------------------------------------------||
D|-----------------------------------||-------------------------------------------||
A|-----------------------------------||-------------------------------------------||
D|-0-0-3-2-0-0-5-3-0-0-7-0-6-5-0-3---||-0-0-3-2-0-0-5-3-0-0-7-0-6-5~--------12-\--||   12
played second time round
Main riff
G|-------------------------------------------||-------------------------------------------||
D|-------------------------------------------||-------------------------------------------||
A|-------------------------------------------||-------------------------------------------||
D|-0-0-3-2-0-0-5-3-0-0-7-0-6-5-0-3-----------||-0-0-3-2-0-0-5-3-0-0-7-0-6-5~--------------||

 Interlude
G|------------------------------||---------------------------------------||
D|------------------------------||---------------------------------------||
A|----7--6--2--5-----3----------||--------2--1---5---5--6--7--9--5-------||
D|--2-------------7----4--------||-----2---------------------------------||

G|---------------------------------------------||-----------------||
D|---------------------------------------------||-----------------||
A|---7--6--5--2----------------------2----0--5-||------7------9~--||
D|--------------------7--6--5--4---2-----------||--0-2----2--4----||

Riff 4
G|-------------------------------------------------------|
D|-------------------------------------------------------|
A|-------------------------------------------------------|
D|--0------0-----0-----0-----0-----0----0-----0-------0--|

During Guitar Solo
G|--------------------------------------------||
D|--------------------------------------------||
A|---------------0--3--5--3--0----------------||
D|--0--3--5--6------------------6--5--3--(0)--||
This is my first tab... So please rate it.
Gh4
Comments