Rammstein - Ohne Dich Chords & Tabs

 

Ohne Dich Chords & Tabs

Rammstein Chords & Tabs

Version: 2 Type: Tab

Ohne Dich Tab

   
Band: Rammstein
Album: Reise, Reise
Song name: Ohne Dich
Tuning: CGCFAD

First chorus (0:56)
[ Acoustic guitar ]
D|-------------------------------------------------------------------|
A|-------------------------------------------------------------------|
F|*-----------------------------------------------------------------*|
C|*-2---------------9---------------7---------------5-------9-------*|x2
G|--2---------------9---------------7---------------5-------9--------|
C|--2---------------9---------------7---------------5-------9--------|


Verse 1
[ Acoustic guitar ]
D|---------------------------------------------------------------------|
A|---------------------------------------------------------------------|
F|---------------------------------------------------------------------|
C|------2-------2-------9-------9-------7-------7-------5-------9------|
G|----2---2---2---2---9---9---9---9---7---7---7---7---5---5---9---9----|
C|--2-------2-------9-------9-------7-------7-------5-------9----------|

D|-------------------------------------------------------------------|
A|-------------------------------------------------------------------|
F|-------------------------------------------------------------------|
C|------2-------2-------9-------9-------7-------7---5----------------|
G|----2---2---2---2---9---9---9---9---7---7---7---7-5----------------|
C|--2-------2-------9-------9-------7-------7-------5----------------|


2nd chorus
[ Distortion ]
D|-------------------------------------------------------------------|
A|-------------------------------------------------------------------|
F|*------------------------------------------------------------------|
C|*-2-------2-------2-2-----2-------9-------9-------9-9-----9--------|
G|--2-------2-------2-2-----2-------9-------9-------9-9-----9--------|
C|--2-------2-------2-2-----2-------9-------9-------9-9-----9--------|

D|-------------------------------------------------------------------|
A|-------------------------------------------------------------------|
F|------------------------------------------------------------------*|
C|--7-------7-------7-7-----7-------5-------5-------9-------9-------*|x2
G|--7-------7-------7-7-----7-------5-------5-------9-------9--------|
C|--7-------7-------7-7-----7-------5-------5-------9-------9--------|

Very soft in the background
[ Acoustic guitar ]
D|-------------------------------------------------------------------|
A|-------------------------------------------------------------------|
F|*-----------------------------------------------------------------*|
C|*-2---------------9---------------7---------------5-------9-------*|x2
G|--2---------------9---------------7---------------5-------9--------|
C|--2---------------9---------------7---------------5-------9--------|


Solo

Tremolo pick these notes very fast:
D|--12--------14-15-17--------------12--------14-15-17------18--17---|
A|-------------------------------------------------------------------|
F|*-----------------------------------------------------------------*|
C|*-----------------------------------------------------------------*|x2
G|-------------------------------------------------------------------|
C|-------------------------------------------------------------------|

[ Tab from: http://www.guitartabs.cc/tabs/r/rammstein/ohne_dich_tab_ver_2.html ]
Rhythm behind the solo
D|-------------------------------------------------------------------|
A|-------------------------------------------------------------------|
F|*------------------------------------------------------------------|
C|*-2-------2-------2-2-----2-------9-------9-------9-9-----9--------|
G|--2-------2-------2-2-----2-------9-------9-------9-9-----9--------|
C|--2-------2-------2-2-----2-------9-------9-------9-9-----9--------|

D|-------------------------------------------------------------------|
A|-------------------------------------------------------------------|
F|-------------------------------------------------------------------|
C|--7-------7-------7-7-----7-------5-------5-------9-------9--------|
G|--7-------7-------7-7-----7-------5-------5-------9-------9--------|
C|--7-------7-------7-7-----7-------5-------5-------9-------9--------|

D|-------------------------------------------------------------------|
A|-------------------------------------------------------------------|
F|*------------------------------------------------------------------|
C|*-2-------2-------2-2-----2-------9-------9-------9-9-----9--------|
G|--2-------2-------2-2-----2-------9-------9-------9-9-----9--------|
C|--2-------2-------2-2-----2-------9-------9-------9-9-----9--------|

D|-------------------------------------------------------------------|
A|-------------------------------------------------------------------|
F|-------------------------------------------------------------------|
C|--10------10------10-10---10------5-------5-------9-------9--------|
G|--10------10------10-10---10------5-------5-------9-------9--------|
C|--10------10------10-10---10------5-------5-------9-------9--------|


Verse 2
[ Acoustic guitar ]
D|--------------------------------------------------------------------|
A|--------------------------------------------------------------------|
F|--------------------------------------------------------------------|
C|------2-------2-------11-------9-------7-------7-------5-------9----|
G|----2---2---2---2---9----9---9---9---7---7---7---7---5---5---9---9--|
C|--2-------2-------9--------9-------7-------7-------5-------9--------|

D|--------------------------------------------------------------------|
A|--------------------------------------------------------------------|
F|--------------------------------------------------------------------|
C|------2-------2-------11-------9-------5-------5---5----------------|
G|----2---2---2---2---9----9---9---9---5---5---5---5-5----------------|
C|--2-------2-------9--------9-------5-------5-------5----------------|


Lead-in for second chorus with distortion guitar, kicks in at the last chord of the accoustic verse
D|-----|
A|-----|
F|--7--|
C|--7--|
G|--5--|
C|-----|


Last chorus
[ Distortion ]
D|-------------------------------------------------------------------|
A|-------------------------------------------------------------------|
F|*------------------------------------------------------------------|
C|*-2-------2-------2-2-----2-------9-------9-------9-9-----9--------|
G|--2-------2-------2-2-----2-------9-------9-------9-9-----9--------|
C|--2-------2-------2-2-----2-------9-------9-------9-9-----9--------|

D|-------------------------------------------------------------------|
A|-------------------------------------------------------------------|
F|------------------------------------------------------------------*|
C|--7-------7-------7-7-----7-------5-------5-------9-------9-------*|x4
G|--7-------7-------7-7-----7-------5-------5-------9-------9--------|
C|--7-------7-------7-7-----7-------5-------5-------9-------9--------|


End
D|-----|
A|-----|
F|-----|
C|--2--|
G|--2--|
C|--2--|

PM. = Palm Mute
H = Harmonics
B = Bend
P = Pull off
F = Finger style or flying fingers as I call it
R = Realase
X = Break
/ = Slide upp
\ = Slide down