Rammstein - Ohne Dich Chords & Tabs

 

Ohne Dich Chords & Tabs

Rammstein Chords & Tabs

Version: 1 Type: Bass Tab

Ohne Dich Bass Tab

Intro (bass starts at 0:57) 

F||-------------------|-------------------|-------------------| 
C||-------------------|-------------------|-------------------| 
G||-------------------|-------------------|-------------------| 
C||--2----------------|--9----------------|--7----------------| 

[ Tab from: http://www.guitartabs.cc/tabs/r/rammstein/ohne_dich_btab.html ]
                                                              
F||--------------------|-------------------|------------------| 
C||--------------------|-------------------|------------------| 
G||--------------------|-------------------|------------------| 
C||--5--------9--------|--2----------------|--9---------------| x 2 

Verse/Chorus 

F||--------------------------|--------------------------------| 
C||--------------------------|--------------------------------| 
G||--------------------------|--------------------------------| 
C||--2--2--2--2--2--2--2--2--|--9--9--9--9--9--9--9--9--------| 


                                                       
F||--------------------------|--------------------------------| 
C||--------------------------|--------------------------------| 
G||--------------------------|--------------------------------| 
C||--7--7--7--7--7--7--7--7--|--5--5--5--5--9--9--9--9--------|