Rammstein - Nebel Chords & Tabs

 

Nebel Chords & Tabs

Rammstein Chords & Tabs

Version: 1 Type: Bass Tab 0 ratings
1 star 2 stars 3 stars 4 stars 5 stars
comments

Nebel Bass Tab

Rammstein
Nebel
Tabed by olli 15

Standard Tuning

Main Thing
G----------------------------------------------------------
D----------------------------------------------------------
A-------------3--------------------------------------------
E-3-55555555----55555555-3-55555555-3-55555555-3-55555555--

G----------------------------------------------------------
D----------------------------------------------------------
A-3--------------------------------------------------------
E---55555555-----------------------------------------------

Just before the chourus, it goes like this
[ Tab from: http://www.guitartabs.cc/tabs/r/rammstein/nebel_btab.html ]
G----------------------------------------------------------
D----------------------------------------------------------
A------------3---------------------------------------------
E-3-55555555---55555555--22222222--00000000----------------

Chourus

G----------------------------------------------------------
D----------------------------------------------------------
A-----------------------3-55555555-3-55555555-5-77777777---
E-3-55555555-3-55555555------------------------------------

G----------------------------------------------------------
D----------------------------------------------------------
A------------33333333--------------------------------------
E-5-77777777----------3-55555555-3-55555555----------------



Comments