Rammstein - Mutter Chords & Tabs

 

Mutter Chords & Tabs

Rammstein Chords & Tabs

Version: 8 Type: Tab 0 ratings
1 star 2 stars 3 stars 4 stars 5 stars
comments

Mutter Tab

   
HI, this is my first tab!
i played it at hte same time on my guitar to the song
and it sounds 100% correct!!
 by the way : the ? in my name is a P !! ;)

So lets start:
PART A
e|-------------7------------------|---------7--------------7-------|
H|----------8-----8---------------|-----------7--------------7-----|
G|-------9----------9-------------|-------8-----8--------8-----8---|
D|----9---------------9-----------|-----9--------------9-----------| 
A|-7------------------------------|---9--------------9-------------|
E|--------------------------------|-7-------------7----------------|
 \            play it 2x for intro and then 6x for verse          /
  \______________________________________________________________/

PART B
e|--------------------------------|--------------------------------|
H|--------------------------------|--------------------------------|
G|--8/9-----11--12-/16------16--14--16--11-------11--12--11--------|
D|--------------------------------|--------------------------------|
A|--------------------------------|--------------------------------|
E|--------------------------------|--------------------------------|
 \                       play 2x in refrain                       /
  \______________________________________________________________/



Then play A 4x, and then the refrain 4x, after that there's the PART C
[ Tab from: http://www.guitartabs.cc/tabs/r/rammstein/mutter_tab_ver_8.html ]
PART C
e|--------------------------------|--------------------------------|\
H|--------------------------------|--------------------------------| \
G|-5------------------------------|-7--------------------6---------|  |
D|-5------------------------------|-7--------------------6---------|  |
A|-3------------------------------|-5--------------------4---------|  |
E|--------------------------------|--------------------------------|  |
                                                                      |
e|--------------------------------|--------------------------------|  |
H|--------------------------------|--------------------------------|  |
G|-5------------------------------|-7------------------------------|  |
D|-5------------------------------|-7--------------------5-7-5-4---|  |
A|-3------------------------------|-5--------------------5-7-5-4---|  |
E|--------------------------------|----------------------3-5-3-2---|  |
 \                      play this part only 1x                        |
  \___________________________________________________________________|


After that there is a pause in which he screams mutter, mutter..

and after that pause is everiting a whole step higher :


e|--------------------------------|--------------------------------|
H|--------------------------------|--------------------------------|
G|--10/11-----13--14-/18------18--16--18--13-------13--14--13------|
D|--------------------------------|--------------------------------|
A|--------------------------------|--------------------------------|
E|--------------------------------|--------------------------------|
 \                         play 4x without text                   /
  \______________________________________________________________/


e|--------------------------------|--------------------------------|\
H|--------------------------------|--------------------------------| \
G|-7------------------------------|-9--------------------8---------|  |
D|-7------------------------------|-9--------------------8---------|  |
A|-5------------------------------|-7--------------------6---------|  |
E|--------------------------------|--------------------------------|  |
                                                                      |
e|--------------------------------|--------------------------------|  |
H|--------------------------------|--------------------------------|  |
G|-7------------------------------|-9------------------------------|  |
D|-7------------------------------|-9--------------------7-9-7-6---|  |
A|-5------------------------------|-7--------------------7-9-7-6---|  |
E|--------------------------------|----------------------5-7-5-4---|  |
 \                      play this part only 1x                        |
  \___________________________________________________________________|



e|--------------------------------|--------------------------------|
H|--------------------------------|--------------------------------|
G|--10/11-----13--14-/18------18--16--18--13-------13--14--13------|
D|--------------------------------|--------------------------------|
A|--------------------------------|--------------------------------|
E|--------------------------------|--------------------------------|
 \                         play 4x with text                      /
  \______________________________________________________________/


THE END..



now i'd like to give BIG thanks to the tabbers that inspired me
working on that :)

cya the next time on my TAB  ;)     .. ?$Y[0
Comments