Rammstein - Mutter Chords & Tabs

 

Mutter Chords & Tabs

Rammstein Chords & Tabs

Version: 7 Type: Tab 0 ratings
1 star 2 stars 3 stars 4 stars 5 stars
comments

Mutter Tab

   
-------------------------------------------------------------------------------
			     Mutter - Rammstein
-------------------------------------------------------------------------------

Song: Mutter
Album: Mutter
Band: Rammstein
Tabbed by: Duncan Usher
Email:IKSOSE3@hotmail.com


Guitar 1: Standard - EADGBe  
Guitar 2: Drop D   - DADGBe  

Intro/Verse

Guitar 1
e|------------------7----------------------7---------------7-----------------|
B|------8----8---------8------10---------7---7-----------7---7---------------|
G|----9---9----9----------9------------8-------8-------8-------8-------------|
D|--9-------------9------------------9---------------9-----------------------|  
A|7--------------------------------9---------------9-------------------------|
E|-------------------------------7---------------7---------------------------|

Chorus

Guitar 2
e|---------------------------------------------------------------------------|
B|---------------------------------------------------------------------------|
G|---------------------------------------------------------------------------|
D|-2--5/7--0--9~-------------------------------------------------------------| 
A|-2--5/7--0--9~-------------------------------------------------------------|
E|-2--5/7--0--9~-------------------------------------------------------------|

Guitar 1
e|---------------------------------------------------------------------------|
B|---------------------------------------------------------------------------|
G|-8/9-------11-12/16---16-14-16-14-11-----12--11----------------------------|
D|---------------------------------------------------------------------------| 
A|---------------------------------------------------------------------------|
E|---------------------------------------------------------------------------|

Bridge

Guitar 2
e|---------------------------------------------------------------------------|
B|---------------------------------------------------------------------------|
G|-5-5-5-5--7-7--4-4--5-5-5-5--7-7-7-----------------------------------------|
D|-5-5-5-5--7-7--4-4--5-5-5-5--7-7-7--5-7-5-4--------------------------------| 
A|-3-3-3-3--5-5--2-2--3-3-3-3--5-5-5--5-7-5-4--------------------------------|
E|------------------------------------5-7-5-4--------------------------------|

Guitar 1
e|---------------------------------------------------------------------------|
B|---------------------------------------------------------------------------|
G|-5-5-5-5--7-7--4-4--5-5-5-5--7-7-7-----------------------------------------|
D|-5-5-5-5--7-7--4-4--5-5-5-5--7-7-7--5-7-5-4--------------------------------| 
A|-3-3-3-3--5-5--2-2--3-3-3-3--5-5-5--5-7-5-4--------------------------------|
E|------------------------------------3-5-3-2--------------------------------|

After Till screams Mutter, the song seems to jump up two frets, but its just the same riff.

Chorus 2
[ Tab from: http://www.guitartabs.cc/tabs/r/rammstein/mutter_tab_ver_7.html ]
Guitar 2
e|---------------------------------------------------------------------------|
B|---------------------------------------------------------------------------|
G|---------------------------------------------------------------------------|
D|-4--7/9--2/--11~-----------------------------------------------------------|
A|-4--7/9--2/--11~-----------------------------------------------------------|
E|-4--7/9--2/--11~-----------------------------------------------------------|

Guitar 1
e|---------------------------------------------------------------------------|
B|---------------------------------------------------------------------------|
G|-10/11-------13-14/18---18-16-18-16-13-----14--13--------------------------|
D|---------------------------------------------------------------------------|
A|---------------------------------------------------------------------------|
E|---------------------------------------------------------------------------|

Bridge 2

e|---------------------------------------------------------------------------|
B|---------------------------------------------------------------------------|
G|-7-7-7-7--9-9--6-6--7-7-7-7--9-9-9-----------------------------------------|
D|-7-7-7-7--9-9--6-6--7-7-7-7--9-9-9--5-7-5-4--------------------------------|
A|-5-5-5-5--7-7--4-4--5-5-5-5--7-7-7--5-7-5-4--------------------------------|
E|------------------------------------5-7-5-4--------------------------------|

e|---------------------------------------------------------------------------|
B|---------------------------------------------------------------------------|
G|-7-7-7-7--9-9--6-6--7-7-7-7--9-9-9-----------------------------------------|
D|-7-7-7-7--9-9--6-6--7-7-7-7--9-9-9--5-7-5-4--------------------------------|
A|-5-5-5-5--7-7--4-4--5-5-5-5--7-7-7--5-7-5-4--------------------------------|
E|------------------------------------3-5-3-2--------------------------------|

Ends on:

Guitar 2
e|---------------------------------------------------------------------------|
B|---------------------------------------------------------------------------|
G|---------------------------------------------------------------------------|
D|-4~------------------------------------------------------------------------|
A|-4~------------------------------------------------------------------------|
E|-4~------------------------------------------------------------------------|

Guitar 1
e|---------------------------------------------------------------------------|
B|---------------------------------------------------------------------------|
G|-11~-----------------------------------------------------------------------|
D|---------------------------------------------------------------------------|
A|---------------------------------------------------------------------------|
E|---------------------------------------------------------------------------|


Sequence

Intro x 6
Chorus x 2
Verse x 4
Chorus x 4
Bridge
Orchestral Interlude
Chorus 2 x 4
Bridge 2
Chorus x 4
End



| /  slide up
| \  slide down
| h  hammer-on
| p  pull-off
| ~  vibrato
| +  harmonic
| x  Mute note
===============================================================================
Comments