Rammstein - Mutter Chords & Tabs

 

Mutter Chords & Tabs

Rammstein Chords & Tabs

Version: 5 Type: Tab 0 ratings
1 star 2 stars 3 stars 4 stars 5 stars
comments

Mutter Tab

   
-----------------------------------------------------------------------
                            Rammstein - Mutter
-----------------------------------------------------------------------
Transcribed by Ben Godby
beniliusbob@hotmail.com

Guitar 1 - Standard Tuning  EADGBe
Guitar 2  Drop D Tuning   - DADGBe

Legend

/  = slide
<> = optional note(s)

Verse (Guitar 1)
   Em					     B
e|-----------------7-------------------------7-----------------7-----|
B|-------------8-------8-------------------7---7-------------7---7---|
G|---------9---------------9-------------8-------8---------8-------8-|
D|-----9-----------------------9-------9-----------------7-----------|
A|-7---------------------------------9-----------------7-------------|
E|---------------------------------7-----------------9---------------|

Chorus (Guitar 1)
e|-----------------------------------------------------------|
B|-----------------------------------------------------------|
G|-9-----------11-12-14/16-----14-16-14-11------<11><12><11>-|
D|-----------------------------------------------------------|
A|-----------------------------------------------------------|
E|-----------------------------------------------------------|
[ Tab from: http://www.guitartabs.cc/tabs/r/rammstein/mutter_tab_ver_5.html ]
Chorus (Guitar 2)
e|---------------------------------|
B|---------------------------------|
G|---------------------------------|
D|-2-------5-/7----0---------------|
A|-2-------5-/7----0---------------|
D|-2-------5-/7----0---------------|

Bridge
e|---------------------------------|
B|---------------------------------|
G|-9-------7-------5-------7-------|
D|-9-------7-------5-------7-------|
A|-7-------5-------3-------5-------|
D|---------------------------------|

After the bridge and synthesizer break, there is a key change (from Em to F#m),
and all notes/chords are moved up two steps for the last chorus.


Chorus (Guitar 1)
e|-----------------------------------------------------------|
B|-----------------------------------------------------------|
G|-11----------13-14-16/18-----16-18-16-13------<14><14><13>-|
D|-----------------------------------------------------------|
A|-----------------------------------------------------------|
E|-----------------------------------------------------------|

Chorus (Guitar 2)
e|---------------------------------|
B|---------------------------------|
G|---------------------------------|
D|-4-------7-/9----2---------------|
A|-4-------7-/9----2---------------|
D|-4-------7-/9----2---------------|

2nd Bridge
Guitar 1
e|-----------------|
B|-----------------|
G|-7-------9-------|
D|-5-------7---4---|
A|-5-------7---4---|
E|-------------2---|
Comments