Rammstein - Moskau Chords & Tabs

 

Moskau Chords & Tabs

Rammstein Chords & Tabs

Version: 2 Type: Tab 0 ratings
1 star 2 stars 3 stars 4 stars 5 stars
comments

Moskau Tab

Title:		Moskau
Artist:		Rammstein
Album:		Reise, Reise (2004)
Tab:		Kristoffer Salamonsen

	(Drop D tuning)


Intro (Overdrive)
0:00
e|--------------------------|
B|--------------------------|
G|--------------------------|
D|--------------------------|
A|--------------------------|
D|--6--8--2---6--8--2--9-8--|


Riff 1a
0:13
e|--------------------------|
B|--------------------------|
G|--------------------------|
D|--------------------------|
A|--6--8--2---6--8--2--9-8--|
D|--6--8--2---6--8--2--9-8--|


Riff 1b
0:26
e|---------------------|
B|---------------------|
G|---------------------|
D|---------------------|
A|--6--8--2---6--4--2--|
D|--6--8--2---6--4--2--|


| Riff 1a	(1:05 - 1:18)
| Riff 1a	(1:44)
| Riff 1b	(1:57)


Solo
2:10
[ Tab from: http://www.guitartabs.cc/tabs/r/rammstein/moskau_tab_ver_2.html ]
e|--7----7-6--4-----4--||--4-6--||--7----7-6--4------|
B|----4---------7------||-------||----4---------7----|
G|----------------4----||-------||----------------4--|
D|---------------------||-------||-------------------|x2
A|---------------------||-------||-------------------|
D|---------------------||-------||-------------------|

Backing: Riff 1a, Riff 1b


Riff 2
2:36
e|----------------|
B|----------------|
G|----------------|
D|--7--12--11--6--|
A|--7--12--11--6--|
D|--7--12--11--6--|


Riff 1c
3:19
Guitar 1
e|----------------------------|
B|----------------------------|
G|----------------------------|
D|-----------6-----------9-8--|
A|--6--8--2--4--6--8--2--7-6--|
D|--6--8--2-----6--8--2-------|

Guitar 2
e|-----------------------------|
B|-----------------------------|
G|-----------------------------|
D|------------------------9-8--|
A|--6--8--9--11--6--8--9--7-6---|
D|--6--8--9--11--6--8--9-------|


Riff 1d
3:32
Guitar 1
e|-------------------------|
B|-------------------------|
G|-------------------------|
D|-----------6-8-----------|
A|--6--8--2--4-6--6--4--2--|
D|--6--8--2-------6--4--2--|

Guitar 2
e|-------------------------|
B|-------------------------|
G|-------------------------|
D|-----------6-8-----------|
A|--6--8--9--4-6--6--4--2--|
D|--6--8--9-------6--4--2--|


| Riff 1c
| Riff 1d

...
Comments