Rammstein - Moskau Chords & Tabs

 

Moskau Chords & Tabs

Rammstein Chords & Tabs

Version: 2 Type: Bass Tab

Moskau Bass Tab

   
Intro:
G:----------------------------------------|
D:----------------------------------------|
A:----------------------------------------|
E:6--8--2---6--8--2-9-8--6--8--2---6--4--2|  

Verse:
G:--------------------------------|
D:--------------------------------|
A:--------------------------------|
E:66666666888888882222222222222222|

G:--------------------------------|
D:--------------------------------|
A:--------------------------------|
E:66666666888888882222222299998888|

G:--------------------------------|
D:--------------------------------|
A:--------------------------------|
E:66666666888888882222222222222222|

G:--------------------------------|
D:--------------------------------|
A:--------------------------------|
E:66666666444444442222222222222222|

Chorus:
G:---------------------|
D:---------------------|
A:---------------------|
E:6--8--2---6--8--2-9-8|

Verse:
G:--------------------------------|
D:--------------------------------|
A:--------------------------------|
E:66666666888888882222222222222222|
[ Tab from: http://www.guitartabs.cc/tabs/r/rammstein/moskau_btab_ver_2.html ]
G:--------------------------------|
D:--------------------------------|
A:--------------------------------|
E:66666666888888882222222299998888|

G:--------------------------------|
D:--------------------------------|
A:--------------------------------|
E:66666666888888882222222222222222|

G:--------------------------------|
D:--------------------------------|
A:--------------------------------|
E:66666666444444442222222222222222|

Chorus:
G:----------------------------------------|
D:----------------------------------------|
A:----------------------------------------|
E:6--8--2---6--8--2-9-8--6--8--2---6--4--2|

G:----------------------------------------|
D:----------------------------------------|
A:----------------------------------------|
E:6--8--2---6--8--2-9-8--6--8--2---6--4--2|

Fill:
G:-------------|
D:-------------|
A:-------------|
E:6---8---2---8|

Chorus:
G:---------------------------------------------|
D:---------------------------------------------|
A:---------------------------------------------|
E:6--8--2--8--6--8--2-9-8--6--8--2-8-9--6--4--2|

G:---------------------------------------------|
D:---------------------------------------------|
A:---------------------------------------------|
E:6--8--2--8--6--8--2-9-8--6--8--2-8-9--6--4--2|