Rammstein - Mein Teil Chords & Tabs

 

Mein Teil Chords & Tabs

Rammstein Chords & Tabs

Version: 4 Type: Tab 0 ratings
1 star 2 stars 3 stars 4 stars 5 stars
comments

Mein Teil Tab

Song: Mein Teil
Artist: Rammstein
Album: Reise Reise
Tabber: Krun
Guitar: Richard Z Kruspe-Bernstein (The other guitar, Paul H Landers also sounds like this)

b = Bend (Full)
x = Dead note
h = Natural Harmonic

Tuning: DAFCGC

                                                    
                                 
D||--------------------------------|
A||--------------------------------|
F||--------------------------------|
C||--2-0-2--2-0-2-5-2-0-2--2-0-2-5-|
G||--2-0-2--2-0-2-5-2-0-2--2-0-2-5-|
C||--2-0-2--2-0-2-5-2-0-2--2-0-2-5-| x6



                               
------------------------------|
------------------------------|
------------------------------|
--2-0-2--2-0-2--2-0-2--2-0-2--|
--2-0-2--2-0-2--2-0-2--2-0-2--|
--2-0-2--2-0-2--2-0-2--2-0-2--|


                                                         
------------------------------|--------------------|
------------------------------|--------------------|
------------------------------|-----------0b-------|
--2-0-2--2-0-2--2-0-2--2-0-2--|--2-----------------|
--2-0-2--2-0-2--2-0-2--2-0-2--|--2-----------------|
--2-0-2--2-0-2--2-0-2--2-0-2--|--2-----------------|


                                                        
-h7-h7-h7-h7-h7-h7-h7-h7-h7-h7-h7-h7-h7-h7-h7-h7--|
--------------------------------------------------|
--------------------------------------------------|
--------------------------------------------------|
--------------------------------------------------|
--------------------------------------------------| x4


                                                          
----------------------------|----------------------------|
----------------------------|----------------------------|
----------------------------|----------------------------|
------2-0-2-5-2-0-2--2-0-2--|------2-0-2-5-2-0-2--2-0-2--|
------2-0-2-5-2-0-2--2-0-2--|------2-0-2-5-2-0-2--2-0-2--|
------2-0-2-5-2-0-2--2-0-2--|------2-0-2-5-2-0-2--2-0-2--|


                                                            
----------------------------|------------------------------|
----------------------------|------------------------------|
----------------------------|------------------------------|
------2-0-2-5-2-0-2--2-0-2--|------x-x-x-x-x-x-x-x-x-x-x-x-|
------2-0-2-5-2-0-2--2-0-2--|------x-x-x-x-x-x-x-x-x-x-x-x-|
------2-0-2-5-2-0-2--2-0-2--|------x-x-x-x-x-x-x-x-x-x-x-x-|


                                                      
--------------------------------|--------------------|
--------------------------------|--------------------|
--------------------------------|--------------------|
--2-0-2--2-0-2-5-2-0-2--2-0-2-5-|--0--------3--------|
--2-0-2--2-0-2-5-2-0-2--2-0-2-5-|--0--------3--------|
--2-0-2--2-0-2-5-2-0-2--2-0-2-5-|--0--------3--------| x4


                        

                                                        
-h7-h7-h7-h7-h7-h7-h7-h7-h7-h7-h7-h7-h7-h7-h7-h7--|----|
--------------------------------------------------|----|
--------------------------------------------------|----|
--------------------------------------------------|----|
--------------------------------------------------|----|
--------------------------------------------------|----| x4


[ Tab from: http://www.guitartabs.cc/tabs/r/rammstein/mein_teil_tab_ver_4.html ]
                                   
|--------------------------|
|--------------------------|
|--------------------------|
|--2--2--2--2--2--2--2--2--|
|--2--2--2--2--2--2--2--2--|
|--2--2--2--2--2--2--2--2--|


                                                      
--------------------------|--------------------------|
--------------------------|--------------------------|
--------------------------|--------------------------|
--3--3--3--3--7--7--7--7--|--2--2--2--2--2--2--2--2--|
--3--3--3--3--7--7--7--7--|--2--2--2--2--2--2--2--2--|
--3--3--3--3--7--7--7--7--|--2--2--2--2--2--2--2--2--|


                                                        
--------------------------|----------------------------|
--------------------------|----------------------------|
--------------------------|----------------------------|
--3--3--3--3--0--0--0--0--|------2-0-2-5-2-0-2--2-0-2--|
--3--3--3--3--0--0--0--0--|------2-0-2-5-2-0-2--2-0-2--|
--3--3--3--3--0--0--0--0--|------2-0-2-5-2-0-2--2-0-2--|


                                                          
----------------------------|----------------------------|
----------------------------|----------------------------|
----------------------------|----------------------------|
------2-0-2-5-2-0-2--2-0-2--|------2-0-2-5-2-0-2--2-0-2--|
------2-0-2-5-2-0-2--2-0-2--|------2-0-2-5-2-0-2--2-0-2--|
------2-0-2-5-2-0-2--2-0-2--|------2-0-2-5-2-0-2--2-0-2--|


                                                   
------------------------------|-------------------|
------------------------------|-------------------|
------------------------------|-------------------|
------x-x-x-x-x-x-x-x-x-x-x-x-|--2----------------|
------x-x-x-x-x-x-x-x-x-x-x-x-|--2----------------|
------x-x-x-x-x-x-x-x-x-x-x-x-|--2----------------|


                                         
--------------------|-------------------|
--------------------|-------------------|
--------------------|-------------------|
--0--------3--------|--2----------------|
--0--------3--------|--2----------------|
--0--------3--------|--2----------------| x4


                                                
|--------------------------------|
|--------------------------------|
|--------------------------------|
|--2-0-2--2-0-2-5-2-0-2--2-0-2-5-|
|--2-0-2--2-0-2-5-2-0-2--2-0-2-5-|
|--2-0-2--2-0-2-5-2-0-2--2-0-2-5-|


                                 
--------------------------------|
--------------------------------|
--------------------------------|
--2-0-2--2-0-2-5-2-0-2--2-0-2-5-|
--2-0-2--2-0-2-5-2-0-2--2-0-2-5-|
--2-0-2--2-0-2-5-2-0-2--2-0-2-5-| x6



                                                     
--------------------------------|-------------------|
--------------------------------|-------------------|
--------------------------------|-------------------|
--2-0-2--2-0-2-5-2-0-2--2-0-2-5-|--2----------------|
--2-0-2--2-0-2-5-2-0-2--2-0-2-5-|--2----------------|
--2-0-2--2-0-2-5-2-0-2--2-0-2-5-|--2----------------|


                                         
--------------------|-------------------|
--------------------|-------------------|
--------------------|-------------------|
--0--------3--------|--2----------------|
--0--------3--------|--2----------------|
--0--------3--------|--2----------------| x3


                                                      
--------------------|
--------------------|
--------------------|
--0--------3--------|
--0--------3--------|
--0--------3--------|
Comments