Rammstein - Mein Herz Brennt Chords & Tabs

 

Mein Herz Brennt Chords & Tabs

Rammstein Chords & Tabs

Version: 3 Type: Tab 0 ratings
1 star 2 stars 3 stars 4 stars 5 stars
comments

Mein Herz Brennt Tab

-------------------------------------------------------------------------------
		 Mein Herz Brennt - Rammstein
-------------------------------------------------------------------------------
Tabbed by:Matt A.K.A-Govprj
Email:testbug5@yahoo.com

Tuning: 1 step down (D)

Keys:
 / \ - slide
 ___ - palm mute
  x  - mute


INTRO/CHORUS:

|---------------------------------------------------------------|
|---------------------------------------------------------------|
|-6/7-7-7--6/7-7-7---6/7-7-7-6/7-7-7--6/7-7-7--6/7-7-7-6/7-7-7--|
|-6/7-7-7--6/7-7-7---6/7-7-7-6/7-7-7--6/7-7-7--6/7-7-7-6/7-7-7--|
|-4/5-5-5--4/5-5-5---4/5-5-5-4/5-5-5--4/5-5-5--4/5-5-5-4/5-5-5--|
|---------------------------------------------------------------|

 ---------------------------------------------|
 ---------------------------------------------|
 -6/7-7-7--6/7-7-7-6/7-7-7--6/7-7-7-----------|
 -6/7-7-7--6/7-7-7-6/7-7-7--6/7-7-7-----5--6--|
 -4/5-5-5--4/5-5-5-4/5-5-5--4/5-5-5-----5--6--|
 -----------------------------------0-0-3--4--| 2x
                                    ___


PRE-CHORUS:
(Gtr 1)
|----------------------------------------------------------------------|
|----------------------------------------------------------------------|
|-7------------------------------------7-------------------------------|
|-7--------5--------/8--------7--------7--------5--------/8--------7---|
|-5--------5--------/8--------7--------5--------5--------/8--------7---|
|----------3--------/6--------5-----------------3--------/6--------5---|

(Gtr 2)
|----------------------------------------------------------------------|
|----------------------------------------------------------------------|
|-7----------------/10-----------------7-------------------------------|
|-7----------------/10-----------------7-----------------/8--------7---|
|-5-----------------/8-----------------5-----------------/8--------7---|
|--------------------------------------------------------/6--------5---|


CHORUS


PRE-CHORUS


CHORUS - 2x


INTERLUDE:

|-----------------|
|-----------------|
|-----------------|
|-2---------------|
|-2---------------|
|-0---------------|


(Gtr 2 w/wah)
|----------------------------------------|
|-7-7-7-7-7/8-8-8-8/10-10-10-10/12-12-12-|
|-x-x-x-x-x---x-x-x-----x--x--x-----x--x-|
|-4-4-4-4-4/5-5-5-5/-7--7--7--7/-9--9--9-|
|----------------------------------------|
|----------------------------------------| 3x
[ Tab from: http://www.guitartabs.cc/tabs/r/rammstein/mein_herz_brennt_tab_ver_3.html ]
|--------------------------------------------------|
|-/15-15-15-15-15-15/17-17-17\15-15\13-13\11-11\10-|
|---x--x--x--x--x--x-----x--x-----x-----x-----x----|
|-/12-12-12-12-12-12/14-14-14\12-12\10-10\-8--8\-7-|
|--------------------------------------------------|
|--------------------------------------------------|


(Gtr 1)
|-----------------------------------------------------------------|
|-----------------------------------------------------------------|
|-----------------------------------------------------------------|
|-2-2-2-2--2-2-2-2--2-2-2-2-7-7-7-7--7-7-7-7--7-7-7-7-7/10-10-10--|
|-2-2-2-2--2-2-2-2--2-2-2-2-7-7-7-7--7-7-7-7--7-7-7-7-7/10-10-10--|
|-0-0-0-0--0-0-0-0--0-0-0-0-5-5-5-5--5-5-5-5--5-5-5-5-5/-8--8--8--|

 -----------------------------------------------------|
 -----------------------------------------------------|
 -----------------------------------------------------|
 -10-10-10-10--10-10-10-10-10\9-9-9--9-9-9-9--9-9-9-9-|
 -10-10-10-10--10-10-10-10-10\9-9-9--9-9-9-9--9-9-9-9-|
 --8--8--8--8---8--8--8--8--8\7-7-7--7-7-7-7--7-7-7-7-|

 -----------------------------------------------------------------|
 -----------------------------------------------------------------|
 -----------------------------------------------------------------|
 -2-2-2-2--2-2-2-2--2-2-2-2-7-7-7-7--7-7-7-7--7-7-7-7-7/10-10-10--|
 -2-2-2-2--2-2-2-2--2-2-2-2-7-7-7-7--7-7-7-7--7-7-7-7-7/10-10-10--|
 -0-0-0-0--0-0-0-0--0-0-0-0-5-5-5-5--5-5-5-5--5-5-5-5-5/-8--8--8--|

 --------------------------------------|
 --------------------------------------|
 --------------------------------------|
 -10-10-10-10--10-10-10-10-10/12-12-12-|
 -10-10-10-10--10-10-10-10-10/12-12-12-|
 --8--8--8--8---8--8--8--8--8/10-10-10-|

(Gtr 2 w/wah)
|----------------------------------------|
|-7-7-7-7-7/8-8-8-8/10-10-10-10/12-12-12-|
|-x-x-x-x-x---x-x-x-----x--x--x-----x--x-|
|-4-4-4-4-4/5-5-5-5/-7--7--7--7/-9--9--9-|
|----------------------------------------|
|----------------------------------------| 3x

|--------------------------------------------------|
|-/15-15-15-15-15-15/17-17-17\15-15\13-13\11-11\10-|
|---x--x--x--x--x--x-----x--x-----x-----x-----x----|
|-/12-12-12-12-12-12/14-14-14\12-12\10-10\-8--8\-7-|
|--------------------------------------------------|
|--------------------------------------------------|

|----------------------------------------|
|-7-7-7-7-7/8-8-8-8/10-10-10-10/12-12-12-|
|-x-x-x-x-x---x-x-x-----x--x--x-----x--x-|
|-4-4-4-4-4/5-5-5-5/-7--7--7--7/-9--9--9-|
|----------------------------------------|
|----------------------------------------| 3x

|--------------------------------------------------|
|-/15-15-15-15-15-15/17-17-17\15-15\13-13\11-11\10-|
|---x--x--x--x--x--x-----x--x-----x-----x-----x----|
|-/12-12-12-12-12-12/14-14-14\12-12\10-10\-8--8\-7-|
|--------------------------------------------------|
|--------------------------------------------------|


CHORUS - 2x

===============================================================================
Comments