Rammstein - Los Chords & Tabs

 

Los Chords & Tabs

Rammstein Chords & Tabs

Version: 7 Type: Tab 0 ratings
1 star 2 stars 3 stars 4 stars 5 stars
comments

Los Tab

   
Song   : Los!
Artist : Rammstein
Album  : Reise, Reise
-----------------------------------------------------------------------------
Tuning : Standard Tuning 4 Steps Down!
       : C, F, A#, D#, G, C
-----------------------------------------------------------------------------
Best playing on Concert Guitar



Main Riff:
        
C |-----------------------------------|-------------------------------------|
G |-----------------------------------|-------------------------------------|
D#|-----------------------------------|-------------------------------------|
A#|-----3-----5-----2-----3-----5---2-|-----3-----5-----2-----3-----5/7-7-7-|
F |-----3-----5-----2-----3-----5---2-|-----3-----5-----2-----3-----5/7-7-7-|
C |-0-0-1-(0)-3-0-0-0-0-0-1-(0)-3-0-0-|-0-0-1-(0)-3-0-0-0-0-0-1-(0)-3/5-5-5-|
    X X    X    X X   X X    X    X     X X    X    X X   X X    X


Solo:                                                      Mouth-Organ:
[ Tab from: http://www.guitartabs.cc/tabs/r/rammstein/los_tab_ver_7.html ]
C |--------------------------|---------------------------| -11--9---9-------|
G |--------------------------|---------------------------| ------11---11----|
D#|----9-7-------------------|----99-7-------------------| -----------------|
A#|--------------------7-5---|---------------------7-5---| -----------------|
F |-7------10-7--5-7-5-7---7-|-7-------10-7--5-7-5-7---7-| -----------------|
C |--------------------------|---------------------------| -----------------|


Lyrics:

(1)
Wir waren namenlos, und ohne Lieder
Recht wortlos waren wir nie wieder
Etwas sanglos sind wir immer noch,
dafür nicht klanglos, man hört uns doch!
Nach einem Windstoß ging ein Sturm los,
einfach beispiellos.. es wurde ZEIT-

LOS!

(2)
Sie waren sprachlos, so sehr schockiert
und sehr ratlos, was war passiert?
Etwas fassungslos und garantiert
verständnislos, "Das wird zensiert!"
Sie sagten grundlos: "Schade um die Noten!",
so schamlos: "Das gehört verboten!"
"Es ist geistlos, was sie da probieren!"
"Zu geschmacklos, wie sie musizieren!"
Es ist hoffnungslos.. sinnlos.. hilflos.. sie sind GOTT-

LOS!

(3)
Wir waren namenlos - wir haben einen Namen!
Waren wortlos - die Worte kamen
Etwas sanglos sind wir immer noch,
dafür nicht klanglos, das hört man doch!
Wir sind nicht fehlerlos, nur etwas haltlos
Ihr werdet lautlos, uns nie..

LOS!

Repeat (1) 

Wir waren los!
Wir waren los!

-----------------------------------------------------------------------------
That's it, I am sure!
OBG / Altmark greetz the world!
Comments