Rammstein - Los Chords & Tabs

 

Los Chords & Tabs

Rammstein Chords & Tabs

Version: 6 Type: Tab 0 ratings
1 star 2 stars 3 stars 4 stars 5 stars
comments

Los Tab

Intro (Guitar 1):
||---------------------------|-------------------------|
||---------------------------|-------------------------|
||*--------------------------|-------------------------|
||*--------3-----5--------2--|-------3-----5--------2--|
||---------3-----5--------2--|-------3-----5--------2--|
||---x--x--1--x--3--x--x--0--|----x--1--x--3--x--x--0--|
[ Tab from: http://www.guitartabs.cc/tabs/r/rammstein/los_tab_ver_6.html ]
                          |1.-3.                   3x |4.                     
|-------------------------|--------------------------||---------------------|
|-------------------------|--------------------------||---------------------|
|-------------------------|-------------------------*||---------------------|
|-------3-----5--------2--|-------3-----5--7--7--7--*||-------3-------------|
|-------3-----5--------2--|-------3-----5--7--7--7---||-------3-------------|
|----x--1--x--3--x--x--0--|----x--1--x--3--5--5--5---||----x--1--x----------|

Then (whole song, two guitars):
|--------------------------|-------------------------|-------------------------|
|--------------------------|-------------------------|-------------------------|
|--------------------------|-------------------------|-------------------------|
|--------3-----5--------2--|-------3-----5--------2--|-------3-----5--------2--|
|--------3-----5--------2--|-------3-----5--------2--|-------3-----5--------2--|
|--x--x--1--x--3--x--x--0--|----x--1--x--3--x--x--0--|----x--1--x--3--x--x--0--|


                           
-------------------------|
-------------------------|
-------------------------|
-------3-----5--7--7--7--|
-------3-----5--7--7--7--|
----x--1--x--3--5--5--5--|

I'm sorry but the solo is coming soon.
Comments