Rammstein - Los Chords & Tabs

 

Los Chords & Tabs

Rammstein Chords & Tabs

Version: 2 Type: Tab 0 ratings
1 star 2 stars 3 stars 4 stars 5 stars
comments

Los Tab

Title: Los
Artisit: Rammstein
Album: Reise, Reise (2004)
Length: 4:25


P.M = Palm Mute
X - X = Repeat from XA - XB

This song is from Rammstein's new album Reise, Reise. 

[ Tab from: http://www.guitartabs.cc/tabs/r/rammstein/los_tab_ver_2.html ]
Intro:        XA                       XB 
|--------------|-----------------------|
|--------------|-----------------------|
|--------------|-----------------------|    X - X  X3
|--------------|-----------------------|
|-----3------4-|------3----4---6-------|
|-0-0-0--0-0-0-|--0-0-0--0-0-0-0-------|
P.M.....................................

Main Riff:
|-----------------------|
|-----------------------|
|-----------------------|
|-----------------------|
|------3----4---6-------|
|--0-0-0--0-0-0-0-------|


I'm sorry I don't have the solo
Comments