Rammstein - Links 2 3 Chords & Tabs

 

Links 2 3 Chords & Tabs

Rammstein Chords & Tabs

Version: 1 Type: Tab 2 ratings
1 star 2 stars 3 stars 4 stars 5 stars
comments

Links 2 3 Tab

A bunch of people have tabbed this song, and due to their stupidity,
I've had to rewrite it.  If you are a smart parson, you know that
Rammstein tunes to Drop D, but all of these people don't know that!
This is the Real way to play the song.


Riff 1
E|---------------------------------------|
B|---------------------------------------|
G|---------------------------------------|
D|---2-2-2-2-2-2-2-2-2-2-2-22--5\7--8----|
A|---2-2-2-2-2-2-2-2-2-2-2-22--5\7--8----|
D|---2-2-2-2-2-2-2-2-2-2-2-22--5\7--8----|
PM   . .   . .   . .   . . ..

Riff 2
E|------------------------------------------|
B|------------------------------------------|
G|------------------------------------------|
D|---2-2-2-2-2-2-2-2-2-2-2-22--5\7--8-8-8-8-|
A|---2-2-2-2-2-2-2-2-2-2-2-22--5\7--8-8-8-8-|
D|---2-2-2-2-2-2-2-2-2-2-2-22--5\7--8-8-8-8-|
PM   . .   . .   . .   . . ..

[ Tab from: http://www.guitartabs.cc/tabs/r/rammstein/links_2_3_tab.html ]
Chorus
E|-------------------|
B|-------------------|
G|-------------------|
D|2----5--7--2-2-2-2-|
A|2----5--7--2-2-2-2-|
D|0----3--5--2-2-2-2-|
PM           . . . .


Solo
E|------------------------|--------------------|
B|-7-h8-10-h12--10-h8-7-h8|-7-h8-10-h12--7-h8--|
G|------------------------|-------------------9|
D|------------------------|--------------------|
A|------------------------|--------------------|
D|------------------------|--------------------|

E|------------------------|----------------------|
B|-7-h8-10-h12--10-h8-7-h8|-7-h8-10-h12--7-h8-12-|
G|------------------------|----------------------|
D|------------------------|----------------------|
A|------------------------|----------------------|
D|------------------------|----------------------|


This is how you REALLY play the song, and if you have a problem......
DEAL WITH IT!!!  This is how it's played!
-Ian
Comments