Rammstein - Links 2 3 4 Chords & Tabs

 

Links 2 3 4 Chords & Tabs

Rammstein Chords & Tabs

Version: 4 Type: Tab 0 ratings
1 star 2 stars 3 stars 4 stars 5 stars
comments

Links 2 3 4 Tab

Michael M Meijer
Listen to the song, this is just an indication.



                                                                 
E||------|------|------|------|------||-------------------------|
B||------|------|------|------|------||-------------------------|
G||------|------|------|------|------||*------------------------|
D||------|------|------|------|------||*--------2----------2----|
A||------|------|------|------|------||---------2----------2----|
E||------|------|------|------|------||---0--0--0----0--0--0----|


                         2x                                                    
-------------------------||------------------------|--------------------------|
-------------------------||------------------------|--------------------------|
------------------------*||------------------------|--------------------------|
--------2----5--7----8--*||--------2----------2----|--------2----5--7---8-8-8-|
--------2----5--7----8---||--------2----------2----|--------2----5--7---8-8-8-|
--0--0--0----3--5----6---||--0--0--0----0--0--0----|--0--0--0----3--5---6-6-6-|


                                                                                
|-------------------------|-------------------------||-------------------------|
|-------------------------|-------------------------||-------------------------|
|*------------------------|------------------------*||*------------------------|
|*--------2----------2----|--------2----5--7----8--*||*--------2----------2----|
|---------2----------2----|--------2----5--7----8---||---------2----------2----|
|---0--0--0----0--0--0----|--0--0--0----3--5----6---||---0--0--0----0--0--0----|


                                                                           2x
------------------------|------------------------|-------------------------||
------------------------|------------------------|-------------------------||
------------------------|------------------------|------------------------*||
--------2----5--7----8--|--------2----------2----|--------2----5--7----8--*||
--------2----5--7----8--|--------2----------2----|--------2----5--7----8---||
--0--0--0----3--5----6--|--0--0--0----0--0--0----|--0--0--0----3--5----6---||


                                                                            
-------------------------|------------------------|------------------------|
-------------------------|------------------------|------------------------|
*------------------------|------------------------|------------------------|
*--------2----------2----|--------2----5--7----8--|--------2----------2----|
---------2----------2----|--------2----5--7----8--|--------2----------2----|
---0--0--0----0--0--0----|--0--0--0----3--5----6--|--0--0--0----0--0--0----|


                                                                              
-------------------------||-------------------------|------------------------|
-------------------------||-------------------------|------------------------|
------------------------*||*------------------------|------------------------|
--------2----5--7----8--*||*--------2----------2----|--------2----5--7----8--|
--------2----5--7----8---||---------2----------2----|--------2----5--7----8--|
--0--0--0----3--5----6---||---0--0--0----0--0--0----|--0--0--0----3--5----6--|


                                                  2x                          
------------------------|-------------------------||-------------------------|
------------------------|-------------------------||-------------------------|
------------------------|------------------------*||*------------------------|
--------2----------2----|--------2----5--7----8--*||*--------2----------2----|
--------2----------2----|--------2----5--7----8---||---------2----------2----|
--0--0--0----0--0--0----|--0--0--0----3--5----6---||---0--0--0----0--0--0----|


                                                                             
------------------------|------------------------|-------------------------||
------------------------|------------------------|-------------------------||
------------------------|------------------------|------------------------*||
--------2----5--7----8--|--------2----------2----|--------2----5--7----8--*||
--------2----5--7----8--|--------2----------2----|--------2----5--7----8---||
--0--0--0----3--5----6--|--0--0--0----0--0--0----|--0--0--0----3--5----6---||

[ Tab from: http://www.guitartabs.cc/tabs/r/rammstein/links_2_3_4_tab_ver_4.html ]
                                                            
-------------------|-------------------|-------------------|
-------------------|-------------------|-------------------|
-------------------|-------------------|-------------------|
--2----------------|--5----------------|--7----------------|
--2----------------|--5----------------|--7----------------|
--0----------------|--3----------------|--5----------------|


                                                               
----------------------|-------------------|-------------------|
----------------------|-------------------|-------------------|
----------------------|-------------------|-------------------|
--8-8-8--8------------|--2----------------|--5----------------|
--8-8-8--8------------|--2----------------|--5----------------|
--6-6-6--6------------|--0----------------|--3----------------|


                                                                
-------------------|----------------------||-------------------|
-------------------|----------------------||-------------------|
-------------------|----------------------||*------------------|
--7----------------|--8-8-8--8------------||*------------------|
--7----------------|--8-8-8--8------------||-------------------|
--5----------------|--6-6-6--6------------||-------------------|


                   8x                                                         
-------------------||------------7---------------|------7--------------------|
-------------------||--7--8--10-----10--8--7--8--|--10-----10--8--7--8-------|
------------------*||----------------------------|----------------------9----|
------------------*||----------------------------|---------------------------|
-------------------||----------------------------|---------------------------|
-------------------||----------------------------|---------------------------|


                                                          
------------7---------------|------7---------------------|
--7--8--10-----10--8--7--8--|--10-----10--8--7--8--12----|
----------------------------|----------------------------|
----------------------------|----------------------------|
----------------------------|----------------------------|
----------------------------|----------------------------|


                                                         
------------7---------------|------7--------------------|
--7--8--10-----10--8--7--8--|--10-----10--8--7--8-------|
----------------------------|----------------------9----|
----------------------------|---------------------------|
----------------------------|---------------------------|
----------------------------|---------------------------|


                                                                                
------------7---------------|------7---------------------||--------------------|
--7--8--10-----10--8--7--8--|--10-----10--8--7--8--12----||--------------------|
----------------------------|----------------------------||*-------------------|
----------------------------|----------------------------||*--2----------------|
----------------------------|----------------------------||---2----------------|
----------------------------|----------------------------||---0----------------|


                                                               
-------------------|-------------------|----------------------|
-------------------|-------------------|----------------------|
-------------------|-------------------|----------------------|
--5----------------|--7----------------|--8-8-8--8------------|
--5----------------|--7----------------|--8-8-8--8------------|
--3----------------|--5----------------|--6-6-6--6------------|


                                                            
-------------------|-------------------|-------------------|
-------------------|-------------------|-------------------|
-------------------|-------------------|-------------------|
--2----------------|--5----------------|--7----------------|
--2----------------|--5----------------|--7----------------|
--0----------------|--3----------------|--5----------------|


                                                            
-----------------------||----------------------|----------||
-----------------------||----------------------|----------||
----------------------*||----------------------|----------||
--8-8-8--8------------*||--8-8-8--8------------|----------||
--8-8-8--8-------------||--8-8-8--8------------|----------||
--6-6-6--6-------------||--6-6-6--6------------|----------||
Comments