Rammstein - Links 234 Chords & Tabs

 

Links 234 Chords & Tabs

Rammstein Chords & Tabs

Version: 1 Type: Tab 0 ratings
1 star 2 stars 3 stars 4 stars 5 stars
comments

Links 234 Tab

Aight, I've seen a lot of people put this song up, and their all wrong.
The number one rule about Rammstein is, they play in Drop D.  Its metal,
its probably in Drop D, and I'm a huge Rammstein fan and I havent seen
anything by them that wasn't.  So, here it is, complete, accurate, and
simple.

Intro, 6x
------------------------------------
------------------------------------
------------------------------------
-----2------2------2--5/7--8--------
-----2------2------2--5/7--8--------
-2-2-2--2-2-2--2-2-2--5/7--8--------

On the 4th time through instead of playing the slide, it is just
three strums on the 8 bar chord
[ Tab from: http://www.guitartabs.cc/tabs/r/rammstein/links_234_tab.html ]
The chorus is played the same as the main intro pattern except when it
comes to the 2...3...4 part, and that is played like
------------------------------------
------------------------------------
------------------------------------
-2---5---7---8----------------------
-2---5---7---8----------------------
-2---5---7---8----------------------

The soft part is played same as intro except with no distortion

Solo, 2x
---------7-------------7---------------------7-------------7----------7-
--7-8-10---10-8-7-8-10---10-8-7-8-5---7-8-10---10-8-7-8-10---10-8-7-8---
------------------------------------------------------------------------
------------------------------------------------------------------------
------------------------------------------------------------------------
------------------------------------------------------------------------
Comments