Rammstein - Laichzeit Chords & Tabs

 

Laichzeit Chords & Tabs

Rammstein Chords & Tabs

Version: 2 Type: Tab

Laichzeit Tab

T: 134 bpm
                                                                               
E||------------------|------------------|------------------|------------------|
B||------------------|------------------|------------------|------------------|
G||------------------|------------------|------------------|------------------|
D||------------------|------------------|------------------|------------------|
A||------------------|------------------|------------------|------------------|
D||------------------|------------------|------------------|------------------|


                                                                            
------------------|------------------|------------------|------------------|
------------------|------------------|------------------|------------------|
------------------|------------------|------------------|------------------|
------------------|------------------|------------------|------------------|
------------------|------------------|------------------|------------------|
------------------|------------------|------------------|------------------|


                                                                                       
----------------------------|----------------------------|----------------------------|
----------------------------|----------------------------|----------------------------|
----------------------------|----------------------------|----------------------------|
----------------------------|----------------------------|----------------------------|
--1-1-1--1-1-1--1--1--4--2--|--1-1-1--1-1-1--1--1--4--2--|--1-1-1--1-1-1--1--1--4--2--|
--1-1-1--1-1-1--1--1--4--2--|--1-1-1--1-1-1--1--1--4--2--|--1-1-1--1-1-1--1--1--4--2--|


                                                                                       
----------------------------|----------------------------|----------------------------|
----------------------------|----------------------------|----------------------------|
----------------------------|----------------------------|----------------------------|
----------------------------|----------------------------|----------------------------|
--1-1-1--1-1-1--1--1--4--2--|--1-1-1--1-1-1--1--1--4--2--|--1-1-1--1-1-1--1--1--4--2--|
--1-1-1--1-1-1--1--1--4--2--|--1-1-1--1-1-1--1--1--4--2--|--1-1-1--1-1-1--1--1--4--2--|


                                                                                       
----------------------------|----------------------------|----------------------------|
----------------------------|----------------------------|----------------------------|
----------------------------|----------------------------|----------------------------|
----------------------------|-------------------2/-4/-2--|----------------------------|
--1-1-1--1-1-1--1--1--4--2--|--1-1-1--1-1-1--1--2/-4/-2--|--1-1-1--1-1-1--1--1--4--2--|
--1-1-1--1-1-1--1--1--4--2--|--1-1-1--1-1-1--1--2/-4/-2--|--1-1-1--1-1-1--1--1--4--2--|


                                                                                       
----------------------------|----------------------------|----------------------------|
----------------------------|----------------------------|----------------------------|
----------------------------|----------------------------|----------------------------|
----------------------------|----------------------------|----------------------------|
--1-1-1--1-1-1--1--1--4--2--|--1-1-1--1-1-1--1--1--4--2--|--1-1-1--1-1-1--1--1--4--2--|
--1-1-1--1-1-1--1--1--4--2--|--1-1-1--1-1-1--1--1--4--2--|--1-1-1--1-1-1--1--1--4--2--|


                                                                                       
----------------------------|----------------------------|----------------------------|
----------------------------|----------------------------|----------------------------|
----------------------------|----------------------------|----------------------------|
----------------------------|----------------------------|----------------------------|
--1-1-1--1-1-1--1--1--4--2--|--1-1-1--1-1-1--1--1--4--2--|--1-1-1--1-1-1--1--1--4--2--|
--1-1-1--1-1-1--1--1--4--2--|--1-1-1--1-1-1--1--1--4--2--|--1-1-1--1-1-1--1--1--4--2--|


                                                                                       
----------------------------|-------------------|------------------|------------------|
----------------------------|-------------------|------------------|------------------|
----------------------------|-------------------|------------------|------------------|
-------------------2/-4/-2--|-------------------|------------------|------------------|
--1-1-1--1-1-1--1--2/-4/-2--|--1----------------|------------------|------------------|
--1-1-1--1-1-1--1--2/-4/-2--|--1----------------|------------------|------------------|


                                                                            
------------------|------------------|------------------|------------------|
------------------|------------------|------------------|------------------|
------------------|------------------|------------------|------------------|
------------------|------------------|------------------|------------------|
------------------|------------------|------------------|------------------|
------------------|------------------|------------------|------------------|


                                                                             
------------------|----------------------------|----------------------------|
------------------|----------------------------|----------------------------|
------------------|----------------------------|----------------------------|
------------------|----------------------------|----------------------------|
------------------|--1-1-1--1-1-1--1--1--4--2--|--1-1-1--1-1-1--1--1--4--2--|
------------------|--1-1-1--1-1-1--1--1--4--2--|--1-1-1--1-1-1--1--1--4--2--|


                                                                                       
----------------------------|----------------------------|----------------------------|
----------------------------|----------------------------|----------------------------|
----------------------------|----------------------------|----------------------------|
----------------------------|----------------------------|----------------------------|
--1-1-1--1-1-1--1--1--4--2--|--1-1-1--1-1-1--1--1--4--2--|--1-1-1--1-1-1--1--1--4--2--|
--1-1-1--1-1-1--1--1--4--2--|--1-1-1--1-1-1--1--1--4--2--|--1-1-1--1-1-1--1--1--4--2--|


                                                                                       
----------------------------|----------------------------|----------------------------|
----------------------------|----------------------------|----------------------------|
----------------------------|----------------------------|----------------------------|
----------------------------|----------------------------|-------------------2/-4/-2--|
--1-1-1--1-1-1--1--1--4--2--|--1-1-1--1-1-1--1--1--4--2--|--1-1-1--1-1-1--1--2/-4/-2--|
--1-1-1--1-1-1--1--1--4--2--|--1-1-1--1-1-1--1--1--4--2--|--1-1-1--1-1-1--1--2/-4/-2--|


                                                                             
-------------------|------------------|------------------|------------------|
-------------------|------------------|------------------|------------------|
-------------------|------------------|------------------|------------------|
-------------------|------------------|------------------|------------------|
--1----------------|------------------|------------------|------------------|
--1----------------|------------------|------------------|------------------|


                                                                            
------------------|------------------|------------------|------------------|
------------------|------------------|------------------|------------------|
------------------|------------------|------------------|------------------|
------------------|------------------|------------------|------------------|
------------------|------------------|------------------|------------------|
------------------|------------------|------------------|------------------|


                                                                             
------------------|----------------------------|----------------------------|
------------------|----------------------------|----------------------------|
------------------|----------------------------|----------------------------|
------------------|----------------------------|----------------------------|
------------------|--1-1-1--1-1-1--1--1--4--2--|--1-1-1--1-1-1--1--1--4--2--|
------------------|--1-1-1--1-1-1--1--1--4--2--|--1-1-1--1-1-1--1--1--4--2--|


                                                                                       
----------------------------|----------------------------|----------------------------|
----------------------------|----------------------------|----------------------------|
----------------------------|----------------------------|----------------------------|
----------------------------|----------------------------|----------------------------|
--1-1-1--1-1-1--1--1--4--2--|--1-1-1--1-1-1--1--1--4--2--|--1-1-1--1-1-1--1--1--4--2--|
--1-1-1--1-1-1--1--1--4--2--|--1-1-1--1-1-1--1--1--4--2--|--1-1-1--1-1-1--1--1--4--2--|


                                                                                       
----------------------------|----------------------------|----------------------------|
----------------------------|----------------------------|----------------------------|
----------------------------|----------------------------|----------------------------|
----------------------------|----------------------------|-------------------2/-4/-2--|
--1-1-1--1-1-1--1--1--4--2--|--1-1-1--1-1-1--1--1--4--2--|--1-1-1--1-1-1--1--2/-4/-2--|
--1-1-1--1-1-1--1--1--4--2--|--1-1-1--1-1-1--1--1--4--2--|--1-1-1--1-1-1--1--2/-4/-2--|


                                                                                       
----------------------------|----------------------------|----------------------------|
----------------------------|----------------------------|----------------------------|
----------------------------|----------------------------|----------------------------|
----------------------------|----------------------------|----------------------------|
--1-1-1--1-1-1--1--1--4--2--|--1-1-1--1-1-1--1--1--4--2--|--1-1-1--1-1-1--1--1--4--2--|
--1-1-1--1-1-1--1--1--4--2--|--1-1-1--1-1-1--1--1--4--2--|--1-1-1--1-1-1--1--1--4--2--|


                                                                                       
----------------------------|----------------------------|----------------------------|
----------------------------|----------------------------|----------------------------|
----------------------------|----------------------------|----------------------------|
----------------------------|----------------------------|----------------------------|
--1-1-1--1-1-1--1--1--4--2--|--1-1-1--1-1-1--1--1--4--2--|--1-1-1--1-1-1--1--1--4--2--|
--1-1-1--1-1-1--1--1--4--2--|--1-1-1--1-1-1--1--1--4--2--|--1-1-1--1-1-1--1--1--4--2--|


                                                                                    
----------------------------|----------------------------|-------------------------|
----------------------------|----------------------------|-------------------------|
----------------------------|----------------------------|-------------------------|
----------------------------|-------------------2/-4/-2--|--4---4---4---4-4--7--5--|
--1-1-1--1-1-1--1--1--4--2--|--1-1-1--1-1-1--1--2/-4/-2--|--4---4---4---4-4--7--5--|
--1-1-1--1-1-1--1--1--4--2--|--1-1-1--1-1-1--1--2/-4/-2--|--4---4---4---4-4--7--5--|


                                                                           
-------------------------|-------------------------|----------------------|
-------------------------|-------------------------|----------------------|
-------------------------|-------------------------|----------------------|
--4---4---4---4-4--7--5--|--4---4---4---4-4--7--5--|--4---4---2--4--------|
--4---4---4---4-4--7--5--|--4---4---4---4-4--7--5--|--4---4---2--4--------|
--4---4---4---4-4--7--5--|--4---4---4---4-4--7--5--|--4---4---2--4--------|


                                                                              
-------------------------|-------------------------|-------------------------|
-------------------------|-------------------------|-------------------------|
-------------------------|-------------------------|-------------------------|
--4---4---4---4-4--7--5--|--4---4---4---4-4--7--5--|--4---4---4---4-4--7--5--|
--4---4---4---4-4--7--5--|--4---4---4---4-4--7--5--|--4---4---4---4-4--7--5--|
--4---4---4---4-4--7--5--|--4---4---4---4-4--7--5--|--4---4---4---4-4--7--5--|

[ Tab from: http://www.guitartabs.cc/tabs/r/rammstein/laichzeit_tab_ver_2.html ]
                                                                                         
------------------------------|-------------------|------------------|------------------|
------------------------------|-------------------|------------------|------------------|
------------------------------|-------------------|------------------|------------------|
------------------------------|-------------------|------------------|------------------|
------------------------------|--1----------------|------------------|------------------|
--4-4-4-4-4-4-4-4-4--4--4--4--|--1----------------|------------------|------------------|


                                                                            
------------------|------------------|------------------|------------------|
------------------|------------------|------------------|------------------|
------------------|------------------|------------------|------------------|
------------------|------------------|------------------|------------------|
------------------|------------------|------------------|------------------|
------------------|------------------|------------------|------------------|


                                                                            
------------------|------------------|------------------|------------------|
------------------|------------------|------------------|------------------|
------------------|------------------|------------------|------------------|
------------------|------------------|------------------|------------------|
------------------|------------------|------------------|------------------|
------------------|------------------|------------------|------------------|


                                                                             
------------------|----------------------------|----------------------------|
------------------|----------------------------|----------------------------|
------------------|----------------------------|----------------------------|
------------------|----------------------------|----------------------------|
------------------|--1-1-1--1-1-1--1--1--4--2--|--1-1-1--1-1-1--1--1--4--2--|
------------------|--1-1-1--1-1-1--1--1--4--2--|--1-1-1--1-1-1--1--1--4--2--|


                                                                                       
----------------------------|----------------------------|----------------------------|
----------------------------|----------------------------|----------------------------|
----------------------------|----------------------------|----------------------------|
----------------------------|----------------------------|----------------------------|
--1-1-1--1-1-1--1--1--4--2--|--1-1-1--1-1-1--1--1--4--2--|--1-1-1--1-1-1--1--1--4--2--|
--1-1-1--1-1-1--1--1--4--2--|--1-1-1--1-1-1--1--1--4--2--|--1-1-1--1-1-1--1--1--4--2--|


                                                                                       
----------------------------|----------------------------|----------------------------|
----------------------------|----------------------------|----------------------------|
----------------------------|----------------------------|----------------------------|
----------------------------|----------------------------|-------------------2/-4/-2--|
--1-1-1--1-1-1--1--1--4--2--|--1-1-1--1-1-1--1--1--4--2--|--1-1-1--1-1-1--1--2/-4/-2--|
--1-1-1--1-1-1--1--1--4--2--|--1-1-1--1-1-1--1--1--4--2--|--1-1-1--1-1-1--1--2/-4/-2--|


                                                                                       
----------------------------|----------------------------|----------------------------|
----------------------------|----------------------------|----------------------------|
----------------------------|----------------------------|----------------------------|
----------------------------|----------------------------|----------------------------|
--1-1-1--1-1-1--1--1--4--2--|--1-1-1--1-1-1--1--1--4--2--|--1-1-1--1-1-1--1--1--4--2--|
--1-1-1--1-1-1--1--1--4--2--|--1-1-1--1-1-1--1--1--4--2--|--1-1-1--1-1-1--1--1--4--2--|


                                                                                       
----------------------------|----------------------------|----------------------------|
----------------------------|----------------------------|----------------------------|
----------------------------|----------------------------|----------------------------|
----------------------------|----------------------------|----------------------------|
--1-1-1--1-1-1--1--1--4--2--|--1-1-1--1-1-1--1--1--4--2--|--1-1-1--1-1-1--1--1--4--2--|
--1-1-1--1-1-1--1--1--4--2--|--1-1-1--1-1-1--1--1--4--2--|--1-1-1--1-1-1--1--1--4--2--|


                                                                                       
----------------------------|----------------------------|----------------------------|
----------------------------|----------------------------|----------------------------|
----------------------------|----------------------------|----------------------------|
----------------------------|-------------------2/-4/-2--|----------------------------|
--1-1-1--1-1-1--1--1--4--2--|--1-1-1--1-1-1--1--2/-4/-2--|--1-1-1--1-1-1--1--1--4--2--|
--1-1-1--1-1-1--1--1--4--2--|--1-1-1--1-1-1--1--2/-4/-2--|--1-1-1--1-1-1--1--1--4--2--|


                                                                                       
----------------------------|----------------------------|----------------------------|
----------------------------|----------------------------|----------------------------|
----------------------------|----------------------------|----------------------------|
----------------------------|----------------------------|----------------------------|
--1-1-1--1-1-1--1--1--4--2--|--1-1-1--1-1-1--1--1--4--2--|--1-1-1--1-1-1--1--1--4--2--|
--1-1-1--1-1-1--1--1--4--2--|--1-1-1--1-1-1--1--1--4--2--|--1-1-1--1-1-1--1--1--4--2--|


                                                                                       
----------------------------|----------------------------|----------------------------|
----------------------------|----------------------------|----------------------------|
----------------------------|----------------------------|----------------------------|
----------------------------|----------------------------|----------------------------|
--1-1-1--1-1-1--1--1--4--2--|--1-1-1--1-1-1--1--1--4--2--|--1-1-1--1-1-1--1--1--4--2--|
--1-1-1--1-1-1--1--1--4--2--|--1-1-1--1-1-1--1--1--4--2--|--1-1-1--1-1-1--1--1--4--2--|


                                                                                 
----------------------------|-------------------------|-------------------------|
----------------------------|-------------------------|-------------------------|
----------------------------|-------------------------|-------------------------|
-------------------2/-4/-2--|--4---4---4---4-4--7--5--|--4---4---4---4-4--7--5--|
--1-1-1--1-1-1--1--2/-4/-2--|--4---4---4---4-4--7--5--|--4---4---4---4-4--7--5--|
--1-1-1--1-1-1--1--2/-4/-2--|--4---4---4---4-4--7--5--|--4---4---4---4-4--7--5--|


                                                                           
-------------------------|----------------------|-------------------------|
-------------------------|----------------------|-------------------------|
-------------------------|----------------------|-------------------------|
--4---4---4---4-4--7--5--|--4---4---2--4--------|--4---4---4---4-4--7--5--|
--4---4---4---4-4--7--5--|--4---4---2--4--------|--4---4---4---4-4--7--5--|
--4---4---4---4-4--7--5--|--4---4---2--4--------|--4---4---4---4-4--7--5--|


                                                                                   
-------------------------|-------------------------|------------------------------|
-------------------------|-------------------------|------------------------------|
-------------------------|-------------------------|------------------------------|
--4---4---4---4-4--7--5--|--4---4---4---4-4--7--5--|------------------------------|
--4---4---4---4-4--7--5--|--4---4---4---4-4--7--5--|------------------------------|
--4---4---4---4-4--7--5--|--4---4---4---4-4--7--5--|--4-4-4-4-4-4-4-4-4--4--4--4--|


                                                                             
-------------------|------------------|------------------|------------------|
-------------------|------------------|------------------|------------------|
-------------------|------------------|------------------|------------------|
-------------------|------------------|------------------|------------------|
--1----------------|------------------|------------------|------------------|
--1----------------|------------------|------------------|------------------|


                                                                            
------------------|------------------|------------------|------------------|
------------------|------------------|------------------|------------------|
------------------|------------------|------------------|------------------|
------------------|------------------|------------------|------------------|
------------------|------------------|------------------|------------------|
------------------|------------------|------------------|------------------|


                                                                                    
----------------------------|----------------------------|-------------------------|
----------------------------|----------------------------|-------------------------|
----------------------------|----------------------------|-------------------------|
----------------------------|----------------------------|--1---1---1---1-1--4--2--|
--1-1-1--1-1-1--1--1--4--2--|--1-1-1--1-1-1--1--1--4--2--|--1---1---1---1-1--4--2--|
--1-1-1--1-1-1--1--1--4--2--|--1-1-1--1-1-1--1--1--4--2--|--1---1---1---1-1--4--2--|


                                                                                    
-------------------------|----------------------------|----------------------------|
-------------------------|----------------------------|----------------------------|
-------------------------|----------------------------|----------------------------|
--1---1---1---1-1--4--2--|----------------------------|----------------------------|
--1---1---1---1-1--4--2--|--1-1-1--1-1-1--1--1--4--2--|--1-1-1--1-1-1--1--1--4--2--|
--1---1---1---1-1--4--2--|--1-1-1--1-1-1--1--1--4--2--|--1-1-1--1-1-1--1--1--4--2--|


                                                                                 
-------------------------|-------------------------|----------------------------|
-------------------------|-------------------------|----------------------------|
-------------------------|-------------------------|----------------------------|
--1---1---1---1-1--4--2--|--1---1---1---1-1--4--2--|----------------------------|
--1---1---1---1-1--4--2--|--1---1---1---1-1--4--2--|--1-1-1--1-1-1--1--1--4--2--|
--1---1---1---1-1--4--2--|--1---1---1---1-1--4--2--|--1-1-1--1-1-1--1--1--4--2--|


                                                                                 
----------------------------|-------------------------|-------------------------|
----------------------------|-------------------------|-------------------------|
----------------------------|-------------------------|-------------------------|
----------------------------|--1---1---1---1-1--4--2--|--1---1---1---1-1--4--2--|
--1-1-1--1-1-1--1--1--4--2--|--1---1---1---1-1--4--2--|--1---1---1---1-1--4--2--|
--1-1-1--1-1-1--1--1--4--2--|--1---1---1---1-1--4--2--|--1---1---1---1-1--4--2--|


                                                                                    
----------------------------|----------------------------|-------------------------|
----------------------------|----------------------------|-------------------------|
----------------------------|----------------------------|-------------------------|
----------------------------|----------------------------|--1---1---1---1-1--4--2--|
--1-1-1--1-1-1--1--1--4--2--|--1-1-1--1-1-1--1--1--4--2--|--1---1---1---1-1--4--2--|
--1-1-1--1-1-1--1--1--4--2--|--1-1-1--1-1-1--1--1--4--2--|--1---1---1---1-1--4--2--|


                                                                                
-------------------------|--------------------------|--------------------------|
-------------------------|--------------------------|--------------------------|
-------------------------|--------------------------|--------------------------|
--1---1---1---1-1--4--2--|--------------------------|--------------------------|
--1---1---1---1-1--4--2--|--1-1-1--1-1-1----0----0--|--1-1-1--1-1-1----0----0--|
--1---1---1---1-1--4--2--|--1-1-1--1-1-1----0----0--|--1-1-1--1-1-1----0----0--|


                                                
--------------------------|-------------------||
--------------------------|-------------------||
--------------------------|-------------------||
--------------------------|-------------------||
--1-1-1--1-1-1----0----0--|--1----------------||
--1-1-1--1-1-1----0----0--|--1----------------||