Rammstein - Laichzeit Chords & Tabs

 

Laichzeit Chords & Tabs

Rammstein Chords & Tabs

Version: 2 Type: Bass Tab

Laichzeit Bass Tab

No bass in intro (bass starts at 0:14) 

G||----------------------------| 
D||----------------------------| 
A||----------------------------| 
E||--0-0-0--0-0-0--0--0--3--1--| x 6 

Then play: 

G||----------------------------| 
D||----------------------------| 
A||----------------------------| 
E||--0-0-0--0-0-0--0--1/-3/-1--| 

Pre-Bridge (1:57) 

G||----------------------------| 
D||----------------------------| 
A||----------------------------| 
E||--3---3---3---3-3--6--5-----| x 3 

Then play: 
[ Tab from: http://www.guitartabs.cc/tabs/r/rammstein/laichzeit_btab_ver_2.html ]
G||----------------------------| 
D||----------------------------| 
A||----------------------------| 
E||-3--3--3--3--3-3-3--3-3-3-3-| 

G||----------------------------| 
D||----------------------------| 
A||----------------------------| 
E||-0--------------------------| 

No bass during bridge (2:11) 

Afterwards it repeats until the ending. The ending goes: 

G||----------------------------| 
D||----------------------------| 
A||----------------------------| 
E||--0-0-0--0-0-0----1----1----| x 3, getting slower each time 

Tempo should be ~ 113 BPM at the end.