Rammstein - Kokain Chords & Tabs

 

Kokain Chords & Tabs

Rammstein Chords & Tabs

Version: 1 Type: Tab 0 ratings
1 star 2 stars 3 stars 4 stars 5 stars
comments

Kokain Tab

          
          Author/Artist: Rammstein
          Title: Kokain
          Album: Das Modell (single)
          Transcribed by: Willy Wonka
          Email: TheSpookyKidsFL@aol.com
          
          (standard tuning)
          
          ------------------------|
          ------------------------|
          ------------------------|
          -2----2------2----2/3-2-|
          -2----2------2----2/3-2-|
          -2-xx-2-xxxx-2-xx-2/3-2-|
                                                                                        
          solo
          --------------------------------12---------12-11----------
          -12-10-12-10-9-5-6-5-3-5-6-5-12----12-10-9-------12-5-6-5-
          ----------------------------------------------------------
          ----------------------------------------------------------
          ----------------------------------------------------------
          ----------------------------------------------------------
[ Tab from: http://www.guitartabs.cc/tabs/r/rammstein/kokain_tab.html ]
Comments