Rammstein - Keine Lust Chords & Tabs

 

Keine Lust Chords & Tabs

Rammstein Chords & Tabs

Version: 4 Type: Tab 0 ratings
1 star 2 stars 3 stars 4 stars 5 stars
comments

Keine Lust Tab

   
--------------------------------------------------------------------------
			     Keine Lust - Rammstein
--------------------------------------------------------------------------
Tabbed by: Andrew Hedstrom
Email: Hedstrom_korn@hotmail.com

a friend showed me a live media clip of the song and i thought it was kickass so i
decided to tab it.  It didnt take me long to catch onto the song, its very easy if
u follow the tab.  keep in mind the band only has one guitarist and bassist.

Tuning: C-G-C-F-A-D

100% correct

Intro - usually on bass
D|------------------------|
A|------------------------|
F|------------------------|
C|------3----------3/5\3--|
G|--5--------3/5----------|
C|------------------------|

D|---------------------------------------------------------|
A|---------------------------------------------------------|
F|---------------------------------------------------8--5--|
C|---------------------------------------------------x--x--|
G|-000000-0-0---0000000-0-0---0000000-0-0---00000000-6--3--|
C|-000000-0-0---0000000-0-0---0000000-0-0---00000000-------|

D|--------------------------------|
A|--------------------------------|
F|--------------------------------|
C|--------------------------------|listen to cd for number of
G|-0000000----0000000----0000000--|times you play this.
C|-0000000----0000000----0000000--|


D|--------------------------------|
A|--------------------------------|
F|--------------------------------|
C|--------------------------------|
G|--000000--5*--5*--000000--------|
C|--000000----------000000--3*-3*-|

[ Tab from: http://www.guitartabs.cc/tabs/r/rammstein/keine_lust_tab_ver_4.html ]
Chorus - either sounds close, whichever u like better
D|-----------------------------------------------------|
A|-----------------------------------------------------|
F|-----------------------------------------------------|
C|-----------------------------------------------------|
G|-000000000000-777777777777-555555555555-888888888888-|
C|-000000000000-777777777777-555555555555-888888888888-|

                      - OR -

D|------------------------------------------------------|
A|------------------------------------------------------|
F|------------------------------------------------------|
C|-000000000000-777777777777-555555555555-888888888888--|
G|-xxxxxxxxxxxx-xxxxxxxxxxxx-xxxxxxxxxxxx-xxxxxxxxxxxx--|
C|-000000000000-777777777777-555555555555-888888888888--|

Ending chorus into Breakdown
D|-----------------------------------------------------|
A|-----------------------------------------------------|
F|-----------------------------------------------------|
C|-----------------------------------------------------|
G|-000000000000-777777777777-555555555555-333333333333-|
C|-000000000000-777777777777-555555555555-333333333333-|

Breakdown - Zu kalt.. mir Kalt..
D|------------------------|
A|------------------------|
F|------------------------|
C|-0~-----7~----5~-----8~-|
G|-0~-----7~----5~-----8~-|
C|-0~-----7~----5~-----8~-|


after solo plays for a couple seconds play this..
D|------------------------|
A|------------------------|
F|------------------------|
C|------------------------|
G|-0000000-5*-0000000-5*--|
C|-0000000----0000000-----|

Solo- its on bass coz theres only 1 guitarist, but this is it on guitar
D|------------------------------------------------------|
A|------------------------------------------------------|
F|------------------------------------------------------|
C|------------------------------------------------------|
G|-6-/-11~~~-12p11-----6-/-11~~~-12p11----6-/-11~~~-11^-|
C|------------------------------------------------------|
                 Hold bend long and smoothe. then slowly lower

-those are all the parts, listen to song and you can put them in order.  thats it.


| /  slide up
| \  slide down
| h  hammer-on
| p  pull-off
| ~  let note play long
| +  harmonic
| x  Mute note
========================================================================
Comments