Rammstein - Keine Lust Chords & Tabs

 

Keine Lust Chords & Tabs

Rammstein Chords & Tabs

Version: 2 Type: Tab 0 ratings
1 star 2 stars 3 stars 4 stars 5 stars
comments

Keine Lust Tab

   
Author/Artist: Rammstein                                          7/10/04
Title: Keine Lust
Album: Reise,Reise
Transcribed by: Israel Ramirez
Email: rhcp_k@hotmail.com

Sigo diciendo
Ich bin so verliabt
Afinacion

C-G-C-F-A-D        v-vibrato      *-harmonico-harmonic

-|----------------------------------------------------------------------------|
-|----------------------------------------------------------------------------|
-|----------------------------------------------------------------------------|
-|---3-----3/5\3-----3-----3/5\3----------------------------------------------|parte 1
-|-5---3/5---------5---3/5----------------------------------------------------|
-|----------------------------------------------------------------------------|


-|----------------------------------------------------------------------------|
-|----------------------------------------------------------------------------|
-|----------------------------------------------------------------------------|
-|-0-0-0-0-0-0-0------0-0-0-0-0-0-0------0-0-0-0-0-0-0------------------------|
-|-0-0-0-0-0-0-0--5v\-0-0-0-0-0-0-0--5v\-0-0-0-0-0-0-0-5v\--------------------|
-|-0-0-0-0-0-0-0------0-0-0-0-0-0-0------0-0-0-0-0-0-0------------------------|
  PM............      PM..........       PM...........

-|---------------------------------------------------------------------------|
-|---------------------------------------------------------------------------|
-|----------------8-5--------------------------------------------------------|
-|-0-0-0-0-0-0-0--x-x--------------------------------------------------------|parte 2
-|-0-0-0-0-0-0-0--6-3--------------------------------------------------------|
-|-0-0-0-0-0-0-0-------------------------------------------------------------|
  PM............

-|----------------------------------------------------------------------------|
-|----------------------------------------------------------------------------|
-|----------------------------------------------------------------------------|
-|-0-0-0-0-0-0-0--0-0-0-0-0-0-0--0-0-0-0-0-0-0--0-0-0-0-0-0-0-----------------|parte 3
-|-0-0-0-0-0-0-0--0-0-0-0-0-0-0--0-0-0-0-0-0-0--0-0-0-0-0-0-0-----------------|
-|-0-0-0-0-0-0-0--0-0-0-0-0-0-0--0-0-0-0-0-0-0--0-0-0-0-0-0-0-----------------|
  PM............  PM...........  PM...........  PM...........

-|----------------------------------------------------------------------------|
-|----------------------------------------------------------------------------|
-|----------------------------------------------------------------------------|
-|-0-0-0-0-0-0----------------0-0-0-0-0-0-------------------------------------|parte 4
-|-0-0-0-0-0-0--*5-*5---------0-0-0-0-0-0--*5-*5------------------------------|
-|-0-0-0-0-0-0---------*3-*3--0-0-0-0-0-0---------*3-*3-----------------------|
  PM..........               PM..........

-|----------------------------------------------------------------------------|
-|----------------------------------------------------------------------------|
-|----------------------------------------------------------------------------|
-|-0-0-0-0--2-2-2-2--5-5-5-5--8-8-8-8--0-0-0-0--2-2-2-2--5-5-5-5--8-8-8-8-----|parte 5
-|-0-0-0-0--2-2-2-2--5-5-5-5--8-8-8-8--0-0-0-0--2-2-2-2--5-5-5-5--8-8-8-8-----|
-|-0-0-0-0--2-2-2-2--5-5-5-5--8-8-8-8--0-0-0-0--2-2-2-2--5-5-5-5--8-8-8-8-----|

[ Tab from: http://www.guitartabs.cc/tabs/r/rammstein/keine_lust_tab_ver_2.html ]
-|----------------------------------------------------------------------------|
-|----------------------------------------------------------------------------|
-|----------------------------------------------------------------------------|
-|-12-12-12-12--7-7-7-7--5-5-5-5--8-8-8-8-------------------------------------|
-|-12-12-12-12--7-7-7-7--5-5-5-5--8-8-8-8-------------------------------------|
-|-12-12-12-12--7-7-7-7--5-5-5-5--8-8-8-8-------------------------------------|


-|----------------------------------------------------------------------------|
-|----------------------------------------------------------------------------|
-|----------------------------------------------------------------------------|
-|-12-12-12-12--7-7-7-7--5-5-5-5--0-0-0-0-------------------------------------|
-|-12-12-12-12--7-7-7-7--5-5-5-5--0-0-0-0-------------------------------------|
-|-12-12-12-12--7-7-7-7--5-5-5-5--0-0-0-0-------------------------------------|


-|----------------------------------------------------------------------------|
-|----------------------------------------------------------------------------|
-|----------------------------------------------------------------------------|
-|-12-12--7--5--8----12-12-12-12--7-7--5-5--8-8-8-8---------------------------|parte 6
-|-12-12--7--5--8----12-12-12-12--7-7--5-5--8-8-8-8---------------------------|
-|-12-12--7--5--8----12-12-12-12--7-7--5-5--8-8-8-8---------------------------|


-|----------------------------------------------------------------------------|
-|----------------------------------------------------------------------------|
-|----------------------------------------------------------------------------|
-|----------------------------------------------------------------------------|parte 7
-|-/b11--12p11---/b11--12p11---/b11-b12----p11--------------------------------|
-|----------------------------------------------------------------------------|
   A el solo metanle compression sustainer y un chorus algo asi.

-|----------------------------------------------------------------------------|
-|----------------------------------------------------------------------------|parte 7°
-|----------------------------------------------------------------------------|
-|-0-0-0-0-0-0-------0-0-0-0-0-0--------0-0-0-0-0-0--------0-0-0-0-0-0--------|
-|-0-0-0-0-0-0-5*----0-0-0-0-0-0-5*-----0-0-0-0-0-0-5*-----0-0-0-0-0-0-5*-----|
-|-0-0-0-0-0-0-------0-0-0-0-0-0--------0-0-0-0-0-0--------0-0-0-0-0-0--------|
 pm...........       pm.........        pm.........        pm.........

-|----------------------------------------------------------------------------|
-|----------------------------------------------------------------------------|
-|----------------------------------------------------------------------------|
-|-12-12-12-12---7-7---5-5---8-8----------------------------------------------|parte 8
-|-12-12-12-12---7-7---5-5---8-8----------------------------------------------|
-|-12-12-12-12---7-7---5-5---8-8----------------------------------------------|


-|----------------------------------------------------------------------------|
-|----------------------------------------------------------------------------|
-|----------------------------------------------------------------------------|
-|-12-12-12-12---7-7---5-5---8-8-8-8------------------------------------------|parte 9
-|-12-12-12-12---7-7---5-5---8-8-8-8------------------------------------------|
-|-12-12-12-12---7-7---5-5---8-8-8-8------------------------------------------|

parte1 x1 tiempo                                     México!!!!!!!!!!!!!!!!
parte2 x2 tiempos
parte3 x2 tiempos                                ojala le entiendan adios.
parte4 x2 tiempos
parte5 x1 tiempo
parte2 x1 tiempo                                    Te amo linda
parte3 x2 tiempos
parte4 x1 tiempo
parte5 x1 tiempo
parte6 x1 tiempo
parte3 x1 tiempo
parte7 x1 timepo-segunda guitarra parte3 x1 parte7° x2
parte3 x1 tiempo
Comments