Rammstein - Keine Lust Chords & Tabs

 

Keine Lust Chords & Tabs

Rammstein Chords & Tabs

Version: 1 Type: Tab 0 ratings
1 star 2 stars 3 stars 4 stars 5 stars
comments

Keine Lust Tab

Title:		Keine Lust
Artist:		Rammstein
Album:		Reise, Reise (2004)
Tab:		Kristoffer Salamonsen

	(Drop D tuning)

h = Hammer on
^ = Bend
* = Overtone, You make the note squele


Intro (Clean)
0:00
e|--------------------|
B|--------------------|
G|--------------------|
D|--------------------|x2
A|--3--6--1h3--6^-----|
D|--------------------|


Riff 1a (Distortion)
0:14
e|---------------------------------------------|
B|---------------------------------------------|
G|---------------------------------------------|
D|--5-5-5-5-5-5--5-5-5-5-5-5-5--5-5-5-5-5-5-5--|
A|--3-3-3-3-3-3--3-3-3-3-3-3-3--3-3-3-3-3-3-3--|
D|--5-5-5-5-5-5--5-5-5-5-5-5-5--5-5-5-5-5-5-5--|
    . . . . .    . . . . . .    . . . . . .

e|-----------------------|
B|-----------------------|
G|--------------666-333--|
D|--5-5-5-5-5-5----------|
A|--3-3-3-3-3-3----------|
D|--5-5-5-5-5-5----------|
    . . . . . .   

Play riff 1 two times, then
[ Tab from: http://www.guitartabs.cc/tabs/r/rammstein/keine_lust_tab.html ]
Riff 1b (Distortion)
0:28
e|---------------|
B|---------------|
G|---------------|
D|--5-5-5-5-5-5--|x8
A|--3-3-3-3-3-3--|
D|--5-5-5-5-5-5--|
    . . . . . .
0:42
1c
e|----------------------------------|
B|----------------------------------|
G|----------------------------------|
D|--5-5-5-5-5-5-*5b-5-5-5-5-5-5-*7b-|x4
A|--3-3-3-3-3-3-----3-3-3-3-3-3-----|
D|--5-5-5-5-5-5-----5-5-5-5-5-5-----|
    . . . . . .     . . . . . .

Chourus (Distortion)
0:56
e|-----------------------------------------|
B|-----------------------------------------|
G|------------------------5-5-5-5-8-8-8-8--|
D|--5-5-5-5-5-5-7-7-7-7-7-3-3-3-3-6-6-6-6--|x2
A|--3-3-3-3-3-3-5-5-5-5-5-3-3-3-3-6-6-6-6--|
D|-----------------------------------------|


| Riff 1a 	(1:10)
| Riff 1b 	(1:17)
| Riff 1c x2 	(1:31)
| Chourus x4	(1:38)

Riff 1d
2:05
e|--------------|
B|--------------|
G|--------5--8--|
D|--5--7--3--6--|x2
A|--3--5--3--6--|
D|--------------|


| Riff 1b x20	(2:25)
| Riff 1d x3	(3:00)
| Riff 1a x2	(3:28)

...
Comments