Rammstein - Ich Will Chords & Tabs

 

Ich Will Chords & Tabs

Rammstein Chords & Tabs

Version: 7 Type: Tab 0 ratings
1 star 2 stars 3 stars 4 stars 5 stars
comments

Ich Will Tab

Song: ich will
Band: rammstein
Album: mutter
Transcribed by: thys wouter
e-mail: thys_wouter@hotmail.com

 .  - palm mute           /  - slide up to
\  - slide down to       ~  - vibrato
h  - hammer on           b  - Bend
p  - pull off            Suffixes for bend
T  - tap                 f  - full bend    h - half bend
ph - pinched harmonic    q  - quarter bend t - tap bend
*  - see comment         ^  - Hold bend    r release bend
x  - Stuccatto           ~  - vibrato bend
,  - slight palm mute    () - ghost note, sustained note
"  - tremolo note        <> - Trill
|              |
|*            *|   -repeat          
|*            *|             
|              |

  drop E  (eBGDAD)
                                    3
e |----------------|----------------|----------------|----------------|
B |----------------|----------------|----------------|----------------|
G |*---------------|---------------*|----------------|----------------|
D |*--0-----0------|0-----0-----0--*|---0-----0------|5-5-5-3--3-0-0--|
A |-5-5-5-5-5----5-|5-5-5-5-5-5-5---|-5-5-5-5-5------|5-5-5-3--3-0-0--|
D |-0-0-0-0-0----0-|0-0-0-0-0-0-0---|-0-0-0-0-0------|5-5-5-3--3-0-0--|
  
Ich will, ich will dass ihr mir vertraut ...  ich will dass ich mich versteht
  
Then play this
e |----------------|----------------|----------------|----------------|
B |----------------|----------------|----------------|----------------|
G |*---------------|---------------*|----------------|----------------|
D |*--0-----0------|0-----0-----0--*|---0-----0------|5-5-5-3--3-0-0--|
A |-5-5-5-5-5----5-|5-5-5-5-5-5-5---|-5-5-5-5-5------|5-5-5-3--3-0-0--|
D |-0-0-0-0-0----0-|0-0-0-0-0-0-0---|-0-0-0-0-0------|5-5-5-3--3-0-0--|

Ich will, ich will eure phantasie ...                                 4
e |----------------|----------------|----------------|----------------|
B |----------------|----------------|----------------|----------------|
G *----------------|----------------|----------------|----------------*
D *---0-----0------|----------------|---0-----0------|----------------*
A |-5-5-5-5-5------|----------------|-5-5-5-5-5------|----------------|
D |-0-0-0-0-0------|----------------|-0-0-0-0-0------|----------------|

[ Tab from: http://www.guitartabs.cc/tabs/r/rammstein/ich_will_tab_ver_7.html ]
Könnt ier mich hören ...                                                4                       
e |----------------|----------------|----------------|------------------|
B |----------------|----------------|----------------|------------------|
G *----------------|----------------|----------------|------------------*
D *0---------------|8-8-8-5---5-7-7-|0---------------|8-8-8-10---10-7-7-*
A |0---------------|8-8-8-5---5-7-7-|0---------------|8-8-8-10---10-7-7-|
D |0---------------|8-8-8-5---5-7-7-|0---------------|8-8-8-10---10-7-7-|                                   

                                    3
e |----------------|----------------|----------------|----------------|
B |----------------|----------------|----------------|----------------|
G |*---------------|---------------*|----------------|----------------|
D |*--0-----0------|0-----0-----0--*|---0-----0------|5-5-5-3--3-0-0--|
A |-5-5-5-5-5----5-|5-5-5-5-5-5-5---|-5-5-5-5-5------|5-5-5-3--3-0-0--|
D |-0-0-0-0-0----0-|0-0-0-0-0-0-0---|-0-0-0-0-0------|5-5-5-3--3-0-0--|

  Wir wollen dass ihr uns vertraut ...

e |----------------|----------------|----------------|
B |----------------|----------------|----------------|
G *----------------|----------------|----------------|
D *-----0-------0--|-----0-------0--|-----8-------8--|
A |---0---0---0---0|---0---0---0---0|---8---8---8---8|
D |-0-------0------|-0-------0------|-8-------8------|


e |----------------|----------------|----------------|
B |----------------|----------------|----------------|
G |----------------|----------------|----------------|
D |-----8----------|-----5-------5--|-----5-------5--|
A |---8---8-8-8-7-7|-5-5---5---5---5|---5---5---5---5|
D |-8-------8---7--|-5-------5------|-5-------5------|


e |----------------|----------------|
B |----------------|----------------|
G |----------------|----------------*
D |-----7-------7--|-----7-------7--*
A |---7---7---7---7|---7---7---7---7|
D |-7-------7------|-7-------7------|

Könt ihr mich hören ...

                                                                        4
e |----------------|----------------|----------------|------------------|
B |----------------|----------------|----------------|------------------|
G *----------------|----------------|----------------|------------------*
D *0---------------|8-8-8-5---5-7-7-|0---------------|8-8-8-10---10-7-7-*
A |0---------------|8-8-8-5---5-7-7-|0---------------|8-8-8-10---10-7-7-|
D |0---------------|8-8-8-5---5-7-7-|0---------------|8-8-8-10---10-7-7-|

                                    3
e |----------------|----------------|----------------|----------------|
B |----------------|----------------|----------------|----------------|
G |*---------------|---------------*|----------------|----------------|
D |*--0-----0------|0-----0-----0--*|---0-----0------|5-5-5-3--3-0-0--|
A |-5-5-5-5-5----5-|5-5-5-5-5-5-5---|-5-5-5-5-5------|5-5-5-3--3-0-0--|
D |-0-0-0-0-0----0-|0-0-0-0-0-0-0---|-0-0-0-0-0------|5-5-5-3--3-0-0--|
Comments