Rammstein - Ich Will Chords & Tabs

 

Ich Will Chords & Tabs

Rammstein Chords & Tabs

Version: 6 Type: Tab 0 ratings
1 star 2 stars 3 stars 4 stars 5 stars
comments

Ich Will Tab

   
Artist: Rammstein
Song: Ich Will
Album: Mutter
Tuning: DADGBE (From Low To High)

Intro/Chorus 1

E|----------------------------|
B|----------------------------|
G|----------------------------|
D|-0-0-0-0-0--0-0-0-0-0-0-0-0-| X3 
A|-5-5-5-5-5--5-5-5-5-5-5-5-5-|
D|-0-0-0-0-0--0-0-0-0-0-0-0-0-|
 |   -     -    -     -     -   Stress Underlined
E|----------------------------|
B|----------------------------|
G|----------------------------|
D|-0-0-0-0-0--5-5-5-3-3-3-0-0-| X1
A|-5-5-5-5-5--5-5-5-3-3-3-0-0-|
D|-0-0-0-0-0--5-5-5-3-3-3-0-0-|
     -   -

Verse 2

E|-----------|
B|-----------|
G|-----------|
D|-0-0-0-0-0-| X8
A|-5-5-5-5-5-|
D|-0-0-0-0-0-|
     -     -   Stress Underlined

Chorus 2
[ Tab from: http://www.guitartabs.cc/tabs/r/rammstein/ich_will_tab_ver_6.html ]
E|---------------------------------|
B|---------------------------------|
G|---------------------------------|
D|-0-0-0-0-0-0-0-0-8-8-8-8-5-5-7-7-|
A|-0-0-0-0-0-0-0-0-8-8-8-8-5-5-7-7-|
D|-0-0-0-0-0-0-0-0-8-8-8-8-5-5-7-7-|
 |					     X8
E|-----------------------------------|
B|-----------------------------------|
G|-----------------------------------|
D|-0-0-0-0-0-0-0-08-8-8-8-10-10-7-7-|
A|-0-0-0-0-0-0-0-0-8-8-8-8-10-10-7-7-|
D|-0-0-0-0-0-0-0-0-8-8-8-8-10-10-7-7-|

Bridge w/vibrato

E|--------------------------------------------------------------|
B|--------------------------------------------------------------|
G|--------------------------------------------------------------|
D|-----0-------0-------0-------0--------8-------8-------8-------|
A|---0---0---0---0---0---0---0---0----8---8---8---8---8---8---8-|
D|-0-------0-------0-------0--------8-------8-------8-------8---|
 |										     X2
E|--------------------------------------------------------------------|
B|--------------------------------------------------------------------|
G|--------------------------------------------------------------------|
D|-7------5-------5-------5-------5-------7-------7-------7-------7---|
A|-7----5---5---5---5---5---5---5---5---7---7---7---7---7---7---7---7-|
D|-7--5-------5-------5-------5-------7-------7-------7-------7-------|

Outro

E|----------------------------|
B|----------------------------|
G|----------------------------|
D|-0-0-0-0-0--0-0-0-0-0-0-0-0-| X2
A|-5-5-5-5-5--5-5-5-5-5-5-5-5-|
D|-0-0-0-0-0--0-0-0-0-0-0-0-0-|
     -     -    -     -     -   Stress Underlined

Order

Intro/Chorus 1
Verse 1 (Keyboards)
Intro/Chorus 1
Verse 2
Chorus 2
Intro/Chorus 1
Bridge
Chorus 2
Outro
Comments