Rammstein - Ich Will Chords & Tabs

 

Ich Will Chords & Tabs

Rammstein Chords & Tabs

Version: 4 Type: Tab 0 ratings
1 star 2 stars 3 stars 4 stars 5 stars
comments

Ich Will Tab

artist = rammstein
song = ich will
tabbed by = mieke
album = mutter

hello people this is my first tab but i'm sure it's correct. because
i saw that there were no correct versions on the net so i made one
myself. if you have any comments email me at mieke_meijer@hotmail.com

|--------------------------------------------------|
|--------------------------------------------------|
|--------------------------------------------------|
|---222222-----22222222------222222-----22222222---|
|---222222-----22222222------222222-----22222222---|
|---000000-----00000000------000000-----00000000---|

|----------------------------------------------------------|
|----------------------------------------------------------|
|----------------------------------------------------------|
|---222222-----22222222------222222-----999--777--5--222---|
|---222222-----22222222------222222-----999--777--5--222---|
|---000000-----00000000------000000-----777--555--3--000---|

this goes on until the chorus and with the second verse you play
the first six notes after each sentence.

chorus
|------------------------------------------|
|------------------------------------------|
|------------------------------------------|
|---22222222---101010---777---9------------|
|---22222222---101010---777---9------------|
|---00000000---8  8  8--555---7------------|
[ Tab from: http://www.guitartabs.cc/tabs/r/rammstein/ich_will_tab_ver_4.html ]
clean
|----------------------------------------------------------|
|----------------------------------------------------------|
|----------------------------------------------------------|
|---------2-----------2----------2----------2-----------10-|
|------2----2----2------2----2-----2----2------2-----10----|
|---0----------0-----------0---------0------------8--------|

|----------------------------------------------------------|
|----------------------------------------------------------|
|----------------------------------------------------------|
|-------------10------------10--9-7--------7--------7------|
|--10-----10------10-----10-----9-7-----7----7---7-----7---|
|------8--------------8---------7-5--5---------5-----------|




|----------------------------------------------------------|
|----------------------------------------------------------|
|----------------------------------------------------------|
|------7----------7-----------9-----------9----------------|
|---7-----7----7-----7-----9-----9-----9----9--------------|
|-5----------5----------7-----------7----------7-----------|

|------------------------------------------|
|------------------------------------------|
|------------------------------------------|
|---------9----------9---------------------|
|------9----9----9-----9-------------------|
|---7---------7----------------------------|

thats it. very easy but cool song
Comments