Rammstein - Ich Will Chords & Tabs

 

Ich Will Chords & Tabs

Rammstein Chords & Tabs

Version: 6 Type: Bass Tab 0 ratings
1 star 2 stars 3 stars 4 stars 5 stars
comments

Ich Will Bass Tab

-----------------------------------------------------------------------------
			     ICH WILL - Rammstein
-----------------------------------------------------------------------------

Tabbed By : Matt Edwards
e-mail: Fsgghf2@aol.com

Tuning: Standard

G|------------------------------|X3 G|-------------|
D|------------------------------|X3 D|-------------|
A|---3-----3------3-----3-----3-|X3 A|-------------|
E|-0---0-0------0---0-0---0-0---|X3 E|-555-333-000-|

G|------------------------------|X8
D|------------------------------|X8
A|---3-----3------3-----3-----3-|X8
E|-0---0-0------0---0-0---0-0---|X8

G|------------------------------|X3 G|-------------|
D|------------------------------|X3 D|-------------|
A|---3-----3------3-----3-----3-|X3 A|-------------|
E|-0---0-0------0---0-0---0-0---|X3 E|-555-333-000-|
[ Tab from: http://www.guitartabs.cc/tabs/r/rammstein/ich_will_btab_ver_6.html ]
G|------------------------------|X4
D|------------------------------|X4
A|---3-----3------3-----3-----3-|X4
E|-0---0-0------0---0-0---0-0---|X4

G|---------------------------------------------|X2
D|---------------------------------------------|X2
A|---------------------------------------------|X2
E|-0-0-0-0-888-555-777--0-0-0-0-888-101010-777-|X2 Note: It's 10 10 10, not 1 0 1 0 1 0 

G|------------------------------|X4
D|------------------------------|X4
A|---3-----3------3-----3-----3-|X4
E|-0---0-0------0---0-0---0-0---|X4

Hold for slow part

G|---------------------------------------------|X2
D|---------------------------------------------|X2
A|---------------------------------------------|X2
E|-0-0-0-0-888-555-777--0-0-0-0-888-101010-777-|X2

G|------------------------------|X2
D|------------------------------|X2
A|---3-----3------3-----3-----3-|X2
E|-0---0-0------0---0-0---0-0---|X2
Comments