Rammstein - Ich Will Chords & Tabs

 

Ich Will Chords & Tabs

Rammstein Chords & Tabs

Version: 1 Type: Bass Tab 0 ratings
1 star 2 stars 3 stars 4 stars 5 stars
comments

Ich Will Bass Tab

-------------------------
-------------------------
-------------------------
-0-5-0-0-5-0-5-0-0-5-0-5-

[ Tab from: http://www.guitartabs.cc/tabs/r/rammstein/ich_will_btab.html ]
------------------------
------------------------
------------------------
-555-333-00-------------


------------------------
------------------------
------------------------
-555-777-333-0h---------

------------------------
------------------------
------------------------
-555-222-444-0h---------
Comments