Rammstein - Hilf Mir Chords & Tabs

 

Hilf Mir Chords & Tabs

Rammstein Chords & Tabs

Version: 2 Type: Tab

Hilf Mir Tab

   
----------------------------------------------------------------------------
			     Hilf mir - Rammstein
----------------------------------------------------------------------------
Tabbed by: Bee-Ay
Email: Leviathan_ben@hotmail.com

Tuning: C-G-C-F-A-D

This is a brilliant song from the new album Rosenrot.
Whatever you think about this tab, let it go. this is correct.

P.S Do not play this song alone! Muhaha! :P


Intro guitar:
D|-----------------------------------------------|
A|-----------------------------------------------|
F|-----------------------------------------------|
C|-----------------------------------------------| 
G|-----------------------------------------------|
C|16-16-16-16-16-16-16-16-16-16-16-16-16-16-16-16|


This one sounds cool, but you need long fingers. 
Also mute very slowly so you get the right sound:
D|-------------------------------|
A|-------------------------------|
F|-------------------------------|
C|4-4-4-4-4-4-4-4-4-4-4-4-4-4-4-4| 
G|9-9-9-9-9-9-9-9-9-9-9-9-9-9-9-9|
C|-------------------------------|


D|-----------------------------|-----------------------------|
A|-----------------------------|-----------------------------|
F|-----------------------------|-----------------------------|
C|4-4-4-4-7-7-----0-0-0-0-3-3-3|4-4-4-4-7-7-----7-7-7-7-6-6-6| 
G|4-4-4-4-4-4-----0-0-0-0-3-3-3|4-4-4-4-4-4-----5-5-5-5-4-4-4|
C|4-4-4-4-4-4-----0-0-0-0-3-3-3|4-4-4-4-4-4-----0-0-0-0-3-3-3|

D|---------------------|
A|---------------------|
F|---------------------|
C|-----<5>-------3--(4)| 
G|--<5>---<5>----3--(4)|
C|<5>-------<5>--3--(4)|
   | |  |  | |        
   | |  |  | |       A
Do the hormonics     |-------- Let this note ring totaly out.
like when you tune 
your guitar on these.



Paul:
D|-----------------------------------------------------------|
A|-----------------------------------------------------------|
F|-----------------------------------------------------------|
C|9-9-9-9-9-9-----2-2-2-2-2-2-2-0-0-0-0-0-0-----2-2-2-2-2-2-2| 
G|9-9-9-9-9-9-----2-2-2-2-2-2-2-0-0-0-0-0-0-----2-2-2-2-2-2-2|
C|9-9-9-9-9-9-----2-2-2-2-2-2-2-0-0-0-0-0-0-----2-2-2-2-2-2-2|
"Immer wenn ich einsam bin.."

[ Tab from: http://www.guitartabs.cc/tabs/r/rammstein/hilf_mir_tab_ver_2.html ]
Listen very, very, VERY carefully for this. Believe me, its true:
Richard:
D|--------------|-------------|-------------|------------------|
A|--------------|-------------|-------------|------------------|
F|*------7------|------6------|------4------|----------4------*|
C|*--4-------4--|--2-------2--|--0-------0--|------2-------2--*| 
G|--------------|-------------|-------------|--4/2-------------|
C|--------------|-------------|-------------|------------------|


Paul:
D|----------------------------------------------------------|
A|----------------------------------------------------------|
F|----------------------------------------------------------|
C|4-4-4-4-7-7-----4-4-4-4-7-7-----4-4-4-4-7-7----4-4-4-4-7-7| 
G|4-4-4-4-4-4-----4-4-4-4-4-4-----4-4-4-4-4-4----4-4-4-4-4-4|
C|4-4-4-4-4-4-----4-4-4-4-4-4-----4-4-4-4-4-4----4-4-4-4-4-4|
"Oh weh die Flamme ft das Kleid.."

Richard in back with:
D|------------|
A|------------|
F|------------| Repaet as needed.
C|4~~---------| 
G|---------3~~|
C|------------|

Just up to Chorus:
D|-------------------| 
A|-------------------| 
F|-------------------| 
C|-------------------| 
G|--2-2-2-2-2-2-2-2--| 
C|--2-2-2-2-2-2-2-2--| 
pm  . . . . . . . . 


Chorus:
D|------------------|
A|------------------|
F|------------------| 
C|4---/9-----0----11| 
G|4---/9-----0----11|
C|4---/9-----0----11|
"Hilf mir"



Ich bin verbrannt mit Haut und Haar
Verbrannt ist alles ganz und gar
Aus der Asche ganz allein
Steig ich auf zum Sonnenschein:

Paul:
D|-------------------------------|
A|-------------------------------|
F|-------------------------------| x3
C|4-4-4-4-4-4-4-4-4-4-4-4-4-3-3-3| 
G|4-4-4-4-4-4-4-4-4-4-4-4-4-3-3-3|
C|4-4-4-4-4-4-4-4-4-4-4-4-4-3-3-3|            


And after 3 times:
D|----------------------------------|
A|----------------------------------|
F|----------------------------------| 
C|4-4-4-4-4-4-4-4-0-0-0-0-0-11-11-11| 
G|4-4-4-4-4-4-4-4-0-0-0-0-0-11-11-11|
C|4-4-4-4-4-4-4-4-0-0-0-0-0-11-11-11|


Richard: Octave chords.
D|--------------------------------------------------------|
A|--------------------------------------------------------|
F|11-11-11-11-11-11-11-11-11-11-11-11-11-11-11-11-11-11-11| 
C|xxxxxxxxxxxxxxxxxxxxxxxxxxxxxxxxxxxxxxxxxxxxxxxxxxxxxxxx| x2 
G|9-9-9-9-9-9-9-9-9-9-9-9-9-9-9-9-9-9-9-9-9-9-9-9-9-9-9-9-|
C|--------------------------------------------------------|

After playing that it slides to this first chord:
D|----------------|
A|----------------|
F|4-4-4-4-4-------| 
C|xxxxxxxxx--7-7-7| 
G|2-2-2-2-2--4-4-4|
C|----------------|


End:
D|-----------------------------------------------------------|
A|-----------------------------------------------------------|
F|-----------------------------------------------------------| 
C|4-4-4-4-7-7-----4-4-4-4-7-7-----4-4-4-4-7-7-----4-4-4-4-7-7|
G|4-4-4-4-4-4-----4-4-4-4-4-4-----4-4-4-4-4-4-----4-4-4-4-4-4|
C|4-4-4-4-4-4-----4-4-4-4-4-4-----4-4-4-4-4-4-----4-4-4-4-4-4|
  Hiilf mir!      Hiilf mir!      Hiilf mir!      Hiilf mir!