Rammstein - Hierate Mich Chords & Tabs

 

Hierate Mich Chords & Tabs

Rammstein Chords & Tabs

Version: 1 Type: Bass Tab 0 ratings
1 star 2 stars 3 stars 4 stars 5 stars
comments

Hierate Mich Bass Tab

Heirate Mich - Rammstein
Jon Craven (i_apathy@hotmail.com; www.homestead.com/larsramirez)
(enters @ 0:44)

Riff 1: (x4)
G:-------------|--------------|-------------|--------------|-------------|--------------|-------------|
D:-------------|--------------|-------------|--------------|-------------|--------------|-------------|
A:-------------|--------------|-------------|--------------|-------------|--------------|-------------|
E:-0--0-0--0-0-|-0--3-2-0-2-3-|-0--0-0--0-0-|-0--3-2-0-2-3-|-0--0-0--0-0-|-0--3-2-0-2-3-|-0--0-0--0-0-|

G:------------|
D:------------|
A:------------|
E:-0--R--R--R-|

Pause for 18 measures

Riff 2:
G:----------|-------------|----------|-------------|----------|-------------|----------|----------|
D:----------|-------------|----------|-------------|----------|-------------|----------|----------|
A:----------|-------------|----------|-------------|----------|-------------|----------|----------|
E:-7*******-|-*****-7-8-5-|-7*******-|-*****-7-8-5-|-7*******-|-*****-7-8-5-|-7*******-|-********-|
[ Tab from: http://www.guitartabs.cc/tabs/r/rammstein/hierate_mich_btab.html ]
G:-----------|--------------|-----------|--------------|-----------|--------------|--------------|
D:-----------|--------------|-----------|--------------|-----------|--------------|--------------|
A:-----------|--------------|-----------|--------------|-----------|--------------|--------------|
E:-9******-9-|-9--9-9-10--7-|-9******-9-|-9--9-9-10--7-|-9******-9-|-9--9-9-10--7-|-7--7-7--7--7-|

G:-------------|
D:-------------|
A:-------------|
E:-7\--\--\--\-|

Riff 1 (x2)
Pause for 18 measures
Riff 2
Riff 1 (x2)

Riff 3:
G:-------------|--------------|-------------|--------------|-------------|--------------|-------------|
D:-------------|--------------|-------------|--------------|-------------|--------------|-------------|
A:-2--2-2--2-2-|-2-2--2-3-0-2-|-2--2-2--2-2-|-2-2--2-3-0-2-|-2--2-2--2-2-|-2-2--2-3-0-2-|-2--2-2--2-2-|
E:-------------|--------------|-------------|--------------|-------------|--------------|-------------|

G:--------------|-------------|--------------|-------------|--------------|-------------|--------------|
D:--------------|-------------|--------------|-------------|--------------|-------------|--------------|
A:-2-2--2-3-0-2-|-4--4-4--4-4-|-4-4--4-5-2-4-|-4--4-4--4-4-|-4-4--4-5-2-4-|-4--4-4--4-4-|-4-4--4-5-2-4-|
E:--------------|-------------|--------------|-------------|--------------|-------------|--------------|

G:-------------|--------------|
D:-------------|--------------|
A:-4--4-4--4-4-|-4-4--4-5-2-4-|
E:-------------|--------------|

Riff 1 (x2)
Break till end
Comments