Rammstein - Heirate Mich Chords & Tabs

 

Heirate Mich Chords & Tabs

Rammstein Chords & Tabs

Version: 4 Type: Tab

Heirate Mich Tab

T:96 bpm
                                                                               
E||------------------|------------------|------------------|------------------|
B||------------------|------------------|------------------|------------------|
G||------------------|------------------|------------------|------------------|
D||------------------|------------------|------------------|------------------|
A||------------------|------------------|------------------|------------------|
D||------------------|------------------|------------------|------------------|


                                                                            
------------------|------------------|------------------|------------------|
------------------|------------------|------------------|------------------|
------------------|------------------|------------------|------------------|
------------------|------------------|------------------|------------------|
------------------|------------------|------------------|------------------|
------------------|------------------|------------------|------------------|


                                                                            
------------------|------------------|------------------|------------------|
------------------|------------------|------------------|------------------|
------------------|------------------|------------------|------------------|
------------------|------------------|------------------|------------------|
------------------|------------------|------------------|------------------|
------------------|------------------|------------------|------------------|


                                                                            
------------------|------------------|------------------|------------------|
------------------|------------------|------------------|------------------|
------------------|------------------|------------------|------------------|
------------------|------------------|------------------|------------------|
------------------|------------------|------------------|------------------|
------------------|------------------|------------------|------------------|


                                                                             
------------------|------------------||-------------------------------------|
------------------|------------------||-------------------------------------|
------------------|------------------||*------------------------------------|
------------------|------------------||*--2-----2-----2-----2---5--4-2--4-5-|
------------------|------------------||---2-----2-----2-----2---5--4-2--4-5-|
------------------|------------------||---2-2-2-2-2-2-2-2-2-2-2-5--4-2--4-5-|


                                                                          
------------------------------------|------------------------------------|
------------------------------------|------------------------------------|
------------------------------------|------------------------------------|
--2-----2-----2-----2---5--4-2--4-5-|--2-----2-----2-----2---5--4-2--4-5-|
--2-----2-----2-----2---5--4-2--4-5-|--2-----2-----2-----2---5--4-2--4-5-|
--2-2-2-2-2-2-2-2-2-2-2-5--4-2--4-5-|--2-2-2-2-2-2-2-2-2-2-2-5--4-2--4-5-|


                                                          
----------------------------||---------------------------|
----------------------------||---------------------------|
---------------------------*||---------------------------|
--2-----2-----2---2--------*||--2-----2-----2---2--------|
--2-----2-----2---2---------||--2-----2-----2---2--------|
--2-2-2-2-2-2-2-2-2---------||--2-2-2-2-2-2-2-2-2--------|


                                                                          
------------------------------------|------------------------------------|
------------------------------------|------------------------------------|
------------------------------------|------------------------------------|
--2-----2-----2-----2---5--4-2--4-5-|--2-----2-----2-----2---5--4-2--4-5-|
--2-----2-----2-----2---5--4-2--4-5-|--2-----2-----2-----2---5--4-2--4-5-|
--2-2-2-2-2-2-2-2-2-2-2-5--4-2--4-5-|--2-2-2-2-2-2-2-2-2-2-2-5--4-2--4-5-|


                                                                 
------------------------------------|---------------------------|
------------------------------------|---------------------------|
------------------------------------|---------------------------|
--2-----2-----2-----2---5--4-2--4-5-|--2-----2-----2---2--------|
--2-----2-----2-----2---5--4-2--4-5-|--2-----2-----2---2--------|
--2-2-2-2-2-2-2-2-2-2-2-5--4-2--4-5-|--2-2-2-2-2-2-2-2-2--------|


                                                                          
------------------------------------|------------------------------------|
------------------------------------|------------------------------------|
------------------------------------|------------------------------------|
--2-----2-----2-----2---5--4-2--4-5-|--2-----2-----2-----2---5--4-2--4-5-|
--2-----2-----2-----2---5--4-2--4-5-|--2-----2-----2-----2---5--4-2--4-5-|
--2-2-2-2-2-2-2-2-2-2-2-5--4-2--4-5-|--2-2-2-2-2-2-2-2-2-2-2-5--4-2--4-5-|


                                                                                      
------------------------------------|---------------------------||-------------------|
------------------------------------|---------------------------||-------------------|
------------------------------------|---------------------------||*------------------|
--2-----2-----2-----2---5--4-2--4-5-|--2-----2-----2---2--------||*------------------|
--2-----2-----2-----2---5--4-2--4-5-|--2-----2-----2---2--------||-------------------|
--2-2-2-2-2-2-2-2-2-2-2-5--4-2--4-5-|--2-2-2-2-2-2-2-2-2--------||-------------------|


                                                                              
------------------|------------------|------------------|-------------------||
------------------|------------------|------------------|-------------------||
------------------|------------------|------------------|------------------*||
------------------|------------------|------------------|------------------*||
------------------|------------------|------------------|-------------------||
------------------|------------------|------------------|-------------------||


                                                                     
------------------|------------------------|------------------------|
------------------|------------------------|------------------------|
------------------|--4-------------4---5---|--4-------------4---5---|
------------------|--4-------------4---5---|--4-------------4---5---|
------------------|--2-----------2-2-2-3-3-|--2-----------2-2-2-3-3-|
------------------|------------------------|------------------------|


                                                                              
------------------------|-------------------|--------------------------------|
------------------------|-------------------|--------------------------------|
--4-------------4---5---|--4----------------|--6-----6-------6-----6---7---4-|
--4-------------4---5---|--4----------------|--6-----6-------6-----6---7---4-|
--2-----------2-2-2-3-3-|--2----------------|--4---4-4-4-4-4-4-4-4-4-4-5-5-2-|
------------------------|-------------------|--------------------------------|


                                                                  
--------------------------------|--------------------------------|
--------------------------------|--------------------------------|
--6-----6-------6-----6---7---4-|--6-----6-------6-----6---7---4-|
--6-----6-------6-----6---7---4-|--6-----6-------6-----6---7---4-|
--4---4-4-4-4-4-4-4-4-4-4-5-5-2-|--4---4-4-4-4-4-4-4-4-4-4-5-5-2-|
--------------------------------|--------------------------------|


                                                               
-------------------------|------------------------------------|
-------------------------|------------------------------------|
--5-----5---5---5--------|------------------------------------|
--5-----5---5---5--------|--2-----2-----2-----2---5--4-2--4-5-|
--3---3-3-3-3-3-3--------|--2-----2-----2-----2---5--4-2--4-5-|
-------------------------|--2-2-2-2-2-2-2-2-2-2-2-5--4-2--4-5-|


                                                                          
------------------------------------|------------------------------------|
------------------------------------|------------------------------------|
------------------------------------|------------------------------------|
--2-----2-----2-----2---5--4-2--4-5-|--2-----2-----2-----2---5--4-2--4-5-|
--2-----2-----2-----2---5--4-2--4-5-|--2-----2-----2-----2---5--4-2--4-5-|
--2-2-2-2-2-2-2-2-2-2-2-5--4-2--4-5-|--2-2-2-2-2-2-2-2-2-2-2-5--4-2--4-5-|


                                                                 
---------------------------|------------------------------------|
---------------------------|------------------------------------|
---------------------------|------------------------------------|
--2-----2-----2---2--------|--2-----2-----2-----2---5--4-2--4-5-|
--2-----2-----2---2--------|--2-----2-----2-----2---5--4-2--4-5-|
--2-2-2-2-2-2-2-2-2--------|--2-2-2-2-2-2-2-2-2-2-2-5--4-2--4-5-|

[ Tab from: http://www.guitartabs.cc/tabs/r/rammstein/heirate_mich_tab_ver_4.html ]
                                                                          
------------------------------------|------------------------------------|
------------------------------------|------------------------------------|
------------------------------------|------------------------------------|
--2-----2-----2-----2---5--4-2--4-5-|--2-----2-----2-----2---5--4-2--4-5-|
--2-----2-----2-----2---5--4-2--4-5-|--2-----2-----2-----2---5--4-2--4-5-|
--2-2-2-2-2-2-2-2-2-2-2-5--4-2--4-5-|--2-2-2-2-2-2-2-2-2-2-2-5--4-2--4-5-|


                                                                                       
---------------------------||-------------------|------------------|------------------|
---------------------------||-------------------|------------------|------------------|
---------------------------||*------------------|------------------|------------------|
--2-----2-----2---2--------||*------------------|------------------|------------------|
--2-----2-----2---2--------||-------------------|------------------|------------------|
--2-2-2-2-2-2-2-2-2--------||-------------------|------------------|------------------|


                                                                                    
------------------|-------------------||------------------|------------------------|
------------------|-------------------||------------------|------------------------|
------------------|------------------*||------------------|--4-------------4---5---|
------------------|------------------*||------------------|--4-------------4---5---|
------------------|-------------------||------------------|--2-----------2-2-2-3-3-|
------------------|-------------------||------------------|------------------------|


                                                                      
------------------------|------------------------|-------------------|
------------------------|------------------------|-------------------|
--4-------------4---5---|--4-------------4---5---|--4----------------|
--4-------------4---5---|--4-------------4---5---|--4----------------|
--2-----------2-2-2-3-3-|--2-----------2-2-2-3-3-|--2----------------|
------------------------|------------------------|-------------------|


                                                                  
--------------------------------|--------------------------------|
--------------------------------|--------------------------------|
--6-----6-------6-----6---7---4-|--6-----6-------6-----6---7---4-|
--6-----6-------6-----6---7---4-|--6-----6-------6-----6---7---4-|
--4---4-4-4-4-4-4-4-4-4-4-5-5-2-|--4---4-4-4-4-4-4-4-4-4-4-5-5-2-|
--------------------------------|--------------------------------|


                                                           
--------------------------------|-------------------------|
--------------------------------|-------------------------|
--6-----6-------6-----6---7---4-|--5-----5---5---5--------|
--6-----6-------6-----6---7---4-|--5-----5---5---5--------|
--4---4-4-4-4-4-4-4-4-4-4-5-5-2-|--3---3-3-3-3-3-3--------|
--------------------------------|-------------------------|


                                                                          
------------------------------------|------------------------------------|
------------------------------------|------------------------------------|
------------------------------------|------------------------------------|
--2-----2-----2-----2---5--4-2--4-5-|--2-----2-----2-----2---5--4-2--4-5-|
--2-----2-----2-----2---5--4-2--4-5-|--2-----2-----2-----2---5--4-2--4-5-|
--2-2-2-2-2-2-2-2-2-2-2-5--4-2--4-5-|--2-2-2-2-2-2-2-2-2-2-2-5--4-2--4-5-|


                                                                 
------------------------------------|---------------------------|
------------------------------------|---------------------------|
------------------------------------|---------------------------|
--2-----2-----2-----2---5--4-2--4-5-|--2-----2-----2---2--------|
--2-----2-----2-----2---5--4-2--4-5-|--2-----2-----2---2--------|
--2-2-2-2-2-2-2-2-2-2-2-5--4-2--4-5-|--2-2-2-2-2-2-2-2-2--------|


                                                                          
------------------------------------|------------------------------------|
------------------------------------|------------------------------------|
------------------------------------|------------------------------------|
--2-----2-----2-----2---5--4-2--4-5-|--2-----2-----2-----2---5--4-2--4-5-|
--2-----2-----2-----2---5--4-2--4-5-|--2-----2-----2-----2---5--4-2--4-5-|
--2-2-2-2-2-2-2-2-2-2-2-5--4-2--4-5-|--2-2-2-2-2-2-2-2-2-2-2-5--4-2--4-5-|


                                                                                       
------------------------------------|----------------------------|--------------------|
------------------------------------|----------------------------|--------------------|
------------------------------------|---------------------6b-----|--9~-------7~-------|
--2-----2-----2-----2---5--4-2--4-5-|--2-----2-----2---2---------|--------------------|
--2-----2-----2-----2---5--4-2--4-5-|--2-----2-----2---2---------|--------------------|
--2-2-2-2-2-2-2-2-2-2-2-5--4-2--4-5-|--2-2-2-2-2-2-2-2-2---------|--------------------|


                                                                                   
-----------------------|-------------------------------------|--------------------|
-----------------------|-------------------------------------|--------------------|
--6~-------6h7h6-------|-------------------------------------|--------------------|
-----------------7~----|--------------7t-----7t9t11-12-11~---|---------7h9~-------|
-----------------------|--7t9t10t9-10t--9t10t----------------|--------------------|
-----------------------|-------------------------------------|--------------------|


                                                           
---------------------------|------------------------------|
---9-12-9-14---14/-----9---|--17--16-14-12-14-------------|
---------------------------|------------------------------|
---------------------------|--------------------11~-------|
---------------------------|------------------------------|
---------------------------|------------------------------|


                                                                              
------------------------------------------|----------------------------------|
--------------------------------14--13h14-|--13h14h13-10-13h10-9h10-9~-------|
-----------13-----13-----13---------------|----------------------------------|
--11-11-11-----11-----11-----11-----------|----------------------------------|
------------------------------------------|----------------------------------|
------------------------------------------|----------------------------------|


                                                          
--------------------|------------------------------------|
--12~---------------|------------------------------------|
--------------------|------------------------------------|
--------------------|--2-----2-----2-----2---5--4-2--4-5-|
--------------------|--2-----2-----2-----2---5--4-2--4-5-|
--------------------|--2-2-2-2-2-2-2-2-2-2-2-5--4-2--4-5-|


                                                                 
------------------------------------|---------------------------|
------------------------------------|---------------------------|
------------------------------------|---------------------------|
--2-----2-----2-----2---5--4-2--4-5-|--2-----2-----2---2--------|
--2-----2-----2-----2---5--4-2--4-5-|--2-----2-----2---2--------|
--2-2-2-2-2-2-2-2-2-2-2-5--4-2--4-5-|--2-2-2-2-2-2-2-2-2--------|


                                                                          
------------------------------------|------------------------------------|
------------------------------------|------------------------------------|
------------------------------------|------------------------------------|
--2-----2-----2-----2---5--4-2--4-5-|--2-----2-----2-----2---5--4-2--4-5-|
--2-----2-----2-----2---5--4-2--4-5-|--2-----2-----2-----2---5--4-2--4-5-|
--2-2-2-2-2-2-2-2-2-2-2-5--4-2--4-5-|--2-2-2-2-2-2-2-2-2-2-2-5--4-2--4-5-|


                                                                                      
------------------------------------|---------------------------||-------------------|
------------------------------------|---------------------------||-------------------|
------------------------------------|---------------------------||*------------------|
--2-----2-----2-----2---5--4-2--4-5-|--2-----2-----2---2--------||*------------------|
--2-----2-----2-----2---5--4-2--4-5-|--2-----2-----2---2--------||-------------------|
--2-2-2-2-2-2-2-2-2-2-2-5--4-2--4-5-|--2-2-2-2-2-2-2-2-2--------||-------------------|


                                                                              
------------------|------------------|------------------|-------------------||
------------------|------------------|------------------|-------------------||
------------------|------------------|------------------|------------------*||
------------------|------------------|------------------|------------------*||
------------------|------------------|------------------|-------------------||
------------------|------------------|------------------|-------------------||


                    
------------------||
------------------||
------------------||
------------------||
------------------||
------------------||