Rammstein - Hallelujah Chords & Tabs

 

Hallelujah Chords & Tabs

Rammstein Chords & Tabs

Version: 4 Type: Tab 0 ratings
1 star 2 stars 3 stars 4 stars 5 stars
comments

Hallelujah Tab

Tuning: Dropped D

Intro:
e|-----------------|
B|-----------------|
G|-----------------|
D|--5-5-2---3-3-2--|
A|--5-5-2---3-3-2--|
d|--5-5-2---3-3-2--| x4

e|----------------------|
B|----------------------|
G|----------------------|
D|--5-5-2---3-3-2--5-5--|
A|--5-5-2---3-3-2--5-5--|
d|--5-5-2---3-3-2--5-5--|

Riff 1
e|-------------------------------------------|
B|-------------------------------------------|
G|-------------------------------------------|
D|--2xxx2xxx2xxx2xx3-3--2xxx2xxx2xxx2xx-5-5--|
A|--2xxx2xxx2xxx2xx3-3--2xxx2xxx2xxx2xx-5-5--|
d|--2xxx2xxx2xxx2xx3-3--2xxx2xxx2xxx2xx-5-5--|
[ Tab from: http://www.guitartabs.cc/tabs/r/rammstein/hallelujah_tab_ver_4.html ]
e|--------------------------------------|
B|--------------------------------------|
G|--------------------------------------|
D|--2xxx2xxx2xxx2xx3-3--2xxx2xxx2xxx2xx-|
A|--2xxx2xxx2xxx2xx3-3--2xxx2xxx2xxx2xx-|
d|--2xxx2xxx2xxx2xx3-3--2xxx2xxx2xxx2xx-|


Verse 1:
e|-----------------|
B|-----------------|
G|-----------------|
D|--5-5-2---3-3-2--|
A|--5-5-2---3-3-2--|
d|--5-5-2---3-3-2--|x3 

e|----------------------|
B|----------------------|
G|----------------------|
D|--5-5-2---3-3-2--5-5--|
A|--5-5-2---3-3-2--5-5--|
d|--5-5-2---3-3-2--5-5--|


Riff 1 x1

Chorus:
e|------------------------------------------|
B|------------------------------------------|
G|------------------------------------------|
D|--2---10-10--7---10-10--5---9-9--3---5-5--|
A|--2---10-10--7---10-10--5---9-9--3---5-5--|
d|--2---10-10--7---10-10--5---9-9--3---5-5--|

Verse 2:
Bass only. Guitar jumps back in for the chorus.

Chorus x3
Riff 1 x1
Comments