Rammstein - Hallelujah Chords & Tabs

 

Hallelujah Chords & Tabs

Rammstein Chords & Tabs

Version: 1 Type: Tab 1 rating
1 star 2 stars 3 stars 4 stars 5 stars
comments

Hallelujah Tab

Artist: Rammstein
Song: Hallelujah
Album: Links 2-3-4(Single)
Tabbed by: Ryan Crane

Once again a very easy song
yet very powerful.

DROP D Tuning

I'll just give you the chord progressions,
i'm sure you can work the right rythm out:

Intro/verse/outro:
[ Tab from: http://www.guitartabs.cc/tabs/r/rammstein/hallelujah_tab.html ]
E ----------------------------------
B ----------------------------------
G ----------------------------------
D -5-5--2---------3-3--2------------
A -5-5--2---------3-3--2------------
D -5-5--2---------3-3--2------------


Chorus + bridge ("bei Musik und Kerzenschein")
  (the above might not be true German)

E ----------------------------------
B ----------------------------------
G ----------------------------------
D -2--10--7--10--5--9--3--5---------
A -2--10--7--10--5--9--3--5---------
D -2--10--7--10--5--9--3--5---------


ROCK ON MUDA FUKA.

 
Comments