Rammstein - Hallelujah Chords & Tabs

 

Hallelujah Chords & Tabs

Rammstein Chords & Tabs

Version: 2 Type: Bass Tab 0 ratings
1 star 2 stars 3 stars 4 stars 5 stars
comments

Hallelujah Bass Tab

Song: Hallelujah
Band Rammstein
Instrument:  Bass
Tuning: Standard

(Intro)
G[-----------------------------------------]
D[-----------------------------------------]
A[-----------------------------------------]
E[----3-3-0-0----------------1-1-0-0-------]

Verse                                                                   X4
G[------------------------------------------------------------------------]
D[------------------------------------------------------------------------]
A[------------------------------------------------------------------------]
E[----3-3-0-0-0-0-0-0-0-0-0-0-0-1-1-0-0-0-0-0-0-0-0-0-0-0-0---------------]
Chorus	
G[-----------------------------------------]
D[-----------------------------------------]
A[-----------------------------------------]
E[----3-3-00000000000000000000-------------]

G[-----------------------------------------]
D[-----------------------------------------]
A[-----------------------------------------]
E[---1-1-00000000000000000000--------------]

G[-----------------------------------------]
D[-----------------------------------------]
A[-----------------------------------------]
E[----3-3-00000000000000000000-------------]

G[-----------------------------------------]
D[-----------------------------------------]
A[-----------------------------------------]
E[---1-1-00000000000000000000--------------]

Verse                                                                   X4
G[------------------------------------------------------------------------]
D[------------------------------------------------------------------------]
A[------------------------------------------------------------------------]
E[----3-3-0-0-0-0-0-0-0-0-0-0-0-1-1-0-0-0-0-0-0-0-0-0-0-0-0---------------]



Chorus	

G[-----------------------------------------]
D[-----------------------------------------]
A[-----------------------------------------]
E[----3-3-00000000000000000000-------------]

G[-----------------------------------------]
D[-----------------------------------------]
A[-----------------------------------------]
E[---1-1-00000000000000000000--------------]

G[-----------------------------------------]
D[-----------------------------------------]
A[-----------------------------------------]
E[----3-3-00000000000000000000-------------]

G[-----------------------------------------]
D[-----------------------------------------]
A[-----------------------------------------]
E[---1-1-00000000000000000000--------------]

[ Tab from: http://www.guitartabs.cc/tabs/r/rammstein/hallelujah_btab_ver_2.html ]
G[------------------------------------------------------------------------]
D[------------------------------------------------------------------------]
A[------------------------------------------------------------------------]
E[----3-3-0-0-0-0-0-0-0-0-3-3-3-8-8-5-5-5-5-5-5-5-5-5-5-5-5---------------]



G[------------------------------------------------------------------------]
D[------------------------------------------------------------------------]
A[------------------------------------------------------------------------]
E[---8-8-3-3-3-3-3-3-3-3-3-5-5-5-7-7-1-1-1-1-1-1-1-1-1-0-0-0--------------]

Verse                                                                    X4
G[------------------------------------------------------------------------]
D[------------------------------------------------------------------------]
A[------------------------------------------------------------------------]
E[----3-3-0-0-0-0-0-0-0-0-0-0-0-1-1-0-0-0-0-0-0-0-0-0-0-0-0---------------]

G[----------------------------------------------------------]
D[----------------------------------------------------------]
A[----------------------------------------------------------]
E[--8-8-5-5--------8-8-3-3---------7-7-1-1------------------]


G[------------------------------------------------------------------------]
D[------------------------------------------------------------------------]
A[------------------------------------------------------------------------]
E[----3-3-0-0-0-0-0-0-0-0-3-3-3-8-8-5-5-5-5-5-5-5-5-5-5-5-5---------------]


G[------------------------------------------------------------------------]
D[------------------------------------------------------------------------]
A[------------------------------------------------------------------------]
E[---8-8-3-3-3-3-3-3-3-3-3-5-5-5-7-7-1-1-1-1-1-1-1-1-1-0-0-0--------------]


G[------------------------------------------------------------------------]
D[------------------------------------------------------------------------]
A[------------------------------------------------------------------------]
E[----3-3-0-0-0-0-0-0-0-0-3-3-3-8-8-5-5-5-5-5-5-5-5-5-5-5-5---------------]



G[------------------------------------------------------------------------]
D[------------------------------------------------------------------------]
A[------------------------------------------------------------------------]
E[---8-8-3-3-3-3-3-3-3-3-3-5-5-5-7-7-1-1-1-1-1-1-1-1-1-0-0-0--------------]


G[-----------------------------------------]
D[-----------------------------------------]
A[-----------------------------------------]
E[----3-3-00000000000000000000-------------]

G[-----------------------------------------]
D[-----------------------------------------]
A[-----------------------------------------]
E[---1-1-00000000000000000000--------------]

Ending

G[------------------------]
D[------------------------]
A[------------------------]
E[------3--3--0-----------]
Comments