Rammstein - Feuer Frei Chords & Tabs

 

Feuer Frei Chords & Tabs

Rammstein Chords & Tabs

Version: 9 Type: Tab 0 ratings
1 star 2 stars 3 stars 4 stars 5 stars
comments

Feuer Frei Tab

Tabbed by Scarface13
The_Last_Spartan89@hotmail.com

This intro is actually played by a keyboard. But I liked it so much that I tabbed it
to the guitar. I would tab the entire song but there are other tabs of the song. Enjoy
[ Tab from: http://www.guitartabs.cc/tabs/r/rammstein/feuer_frei_tab_ver_9.html ]
e|---------------------------------------|
B|---------------------------------------|
G|--------------2-3------7--2--3-2-0---0-|
D|--3-5-0-----0-----3----------------3---|
A|---------------------------------------|
E|---------------------------------------|

e|-------------------|
B|-------------------|
G|---7--2--3-2-0---0-|
D|---------------3---|
A|-------------------|
E|-------------------|
Comments