Rammstein - Feuer Frei Chords & Tabs

 

Feuer Frei Chords & Tabs

Rammstein Chords & Tabs

Version: 8 Type: Tab 0 ratings
1 star 2 stars 3 stars 4 stars 5 stars
comments

Feuer Frei Tab

Rammstein - Feuer Frei

Tuning: Drop D

This is my first tab, I think its pretty close.


  -0:10
E-------------|
B-------------|
G-------------|
D------6------|
A------6------|
D------6------|

  -0:20  Intro Riff
E----------------------------------|\
B----------------------------------| \
G----------------------------------|  \___ X16
D------9-10-9-10-9-10-9-10-12-12-12|  /
A------9-10-9-10-9-10-9-10-12-12-12| /
D------9-10-9-10-9-10-9-10-12-12-12|/

  -0:40  Main Riff / Chorus Riff
E----------------------------------|\
B----------------------------------| \
G----------------------------------|  \___ X8
D------56-56-56-56-888-------------|  /
A------56-56-56-56-888-------------| /
D------56-56-56-56-888-------------|/

  -1:12 Verse 1
[ Tab from: http://www.guitartabs.cc/tabs/r/rammstein/feuer_frei_tab_ver_8.html ]
E----------------------------------|\
B----------------------------------| \
G----------------------------------|  \___ X4
D------5-5-5-8---5-5-5-8---5-5-5-8-|  /
A------5-5-5-8---5-5-5-8---5-5-5-8-| /
D------5-5-5-8---5-5-5-8---5-5-5-8-|/

  -1:21 - Chorus
E----------------------------------|\
B----------------------------------| \
G----------------------------------|  \___ X8
D------56-56-56-56-888-------------|  /
A------56-56-56-56-888-------------| /
D------56-56-56-56-888-------------|/

  -2:03 - Verse 2
E----------------------------------|\
B----------------------------------| \
G----------------------------------|  \___ X4
D------5-5-5-8---5-5-5-8---5-5-5-8-|  /
A------5-5-5-8---5-5-5-8---5-5-5-8-| /
D------5-5-5-8---5-5-5-8---5-5-5-8-|/

  -2:31 - Chorus
E----------------------------------|\
B----------------------------------| \
G----------------------------------|  \___ Play till the end
D------56-56-56-56-888-------------|  /
A------56-56-56-56-888-------------| /
D------56-56-56-56-888-------------|/
Comments